Guitar Tabs, Chords and Lyrics


Same Boy Youve Always Known  White Stripes

 -----------------------------------|


 -----------------------------------|


 -2/4-2-0-2-----------7-7-7-7-7-----| x2

---------------------7-7-7-7-7-----|
-----------0---5/7-5-5-5-5-5-5-----|
you fell d[A]own of course
and then you g[D]ot up of course
and started o[A]ver   [D]
forgot my n[A]ame of course
then you st[D]arted to remember
pr[C]etty tough to think about
t[G]he beginning of dec[A]ember
pr[C]etty tough to think about
p[G]retty tough to think about
y[A]eah y[D]eah
pr[D]etty tough to think about
you're looking d[A]own again
and then you lo[D]ok me over
w[A]e're laying down again
o[D]n a blanket in the clover
t[C]he same boy youve always known
w[G]ell i guess i havent gr[A]own
t[C]he same boy youve always known
t[G]he same boy youve always kn[A]own
---------------------------------------|
---------------------------------------|
---------------------------------------|
-7-6-5-5-5-5-5-5-5-5-6-7-7-7-7-7-7-7-7-| X2
-7-6-5-5-5-5-5-5-5-5-6-7-7-7-7-7-7-7-7-|
-5-4-3-3-3-3-3-3-3-3-4-5-5-5-5-5-5-5-5-|


think of what the past did
it could have lasted
so put it in your basket
i hope you know a strong man
who can lend you a hand
lowering my casket

--------------------------------------|
--------------------------------------|
-2/4-7-4-7-4-7-4-2/4-2-0-2-0-2--------| SOLO
--------------------------------------|
--------------------------------------|
--------------------------------------|

[A]i thought this is just to[D]day
and soon youd be ret[A]urning  [D]
the coldest blue ocean wa[A]ter cannot stop
my heart a[D]nd mind from burning
e[C]veryone who's in the know says
t[G]hats exactly how it g[A]oes
a[C]nd if theres anything good about me
i[G]m the only one who kn[A]ows

Important: The song above is NOT stored on the Chordie server. The original song is hosted at www.guitaretab.com. Chordie works as a search engine and provides on-the-fly formatting. Chordie does not index songs against artists'/composers' will. To remove this song please click here.

Text color:
Chord color:
Chord grids: 
Font size:    
Page size: 

A C D G
variations - click chord images

Login - add to songbook

Transpose chords

Tuning

Rating click stars to rate

Layout
Accuracy

SHARE PAGE  




You need to log in to post comments