Guitar Tabs, Chords and Lyrics


Apple Blossom  White Stripes

[Am]Hey, little Apple[A7]   [Am]Blossom
What[A7]   [D]seems to be the problem? [A7]   [Am]
All the ones you tell your[A7]   [Am]troubles to
They [E]don't really [G]care for [Am]you [A7]

VERSE 2:
Come and tell me what you're thinking
Cause just when the boat is sinking
A little light is blinking
And I will come and rescue you

CHORUS:
[D]Lots of girls walk [Am]around in tears [E]
But thats not for [Am]you [D]
You've been looking all [Am]around for years
For some[B]one to tell your troubles to [E]   [G]  [Am]

VERSE 3:
Come and sit with me and talk awhile
Let me see your pretty little smile
Put your troubles in a little pile
And I will sort them out for you
Alright

SOLO:
 e|------------------------------------------------------------------------------------------------------|
 B|--------------------------------------------------------------------------------------8h10-10-8-6-5-3-|
 G|------------------------------------------------------------------7h9-9-7-5-4-2-(2/)------------------|
 D|------------------5h7-7-5-3-2-0-----------------------------------------------------------------------|
 A|-5h7-7-7-5-3-2-0-----------------5h7-7-5-3-2-0--2-2-2-3-3-2-------------------------------------------|
 E|-------------------------------------------------------------0-3--------------------------------------|
 e|-----------------------------------------|
 B|-----------------------------------------|
 G|-7h9-5h7-4h5-4-5-7-5-4-2--2h4-4-4---0-2--|
 D|----------------------------------2------|
 A|-----------------------------------------|
 E|-----------------------------------------|


CHORUS

VERSE 4:
Come and sit with me and talk awhile
Let me see your pretty little smile
Put your troubles in a little pile
And I will sort them out for you
I'll fall in love with you
I think I'll marry you

[Am]    [Am]   [Am]                             

Important: The song above is NOT stored on the Chordie server. The original song is hosted at www.guitaretab.com. Chordie works as a search engine and provides on-the-fly formatting. Chordie does not index songs against artists'/composers' will. To remove this song please click here.

Text color:
Chord color:
Chord grids: 
Font size:    
Page size: 

A7 Am B D E G
variations - click chord images

Login - add to songbook

Transpose chords

Tuning

Rating click stars to rate

Layout
Accuracy

SHARE PAGE  




You need to log in to post comments