Guitar Tabs, Chords and Lyrics


I Just Dont Know What To Do With Myself  White Stripes

         [G]          [C]     [G]             ~~~

e------3--3-0----0--0-0----------------------|
b------0--0-0----1--1-0----------------------|
g------0--0-0----0--0-0----x-----------------|
d---0--0------2--2------0--x-------------0---|
a---x---------3---------x--x--5--5-3-2---0---|
e---3-------------------3--x-----------------|


0:12

Bridge:

Gtr. 1

         [G]          [C]          [G]        

e------3--3-3----0--0-0-----3-3---|
b------0--0-0----1--1-0-----0-0---|
g------0--0-0----0--0-0-----0-0---|
d------0--0-0----2--x-------0-0---|
a-------------3-------------x-x---|
e---3-------------------3---3-3---|

Pm|.....................|

Gtr. 2 (*)

                             [G]                                            
e---------------------------3-3---|
b---------------------------0-0---|
g---------------------------0-0---|
d---------------------------0-0---|
a---------------------------x-x---|
e---------------------------3-3---|


0:23

Verse:

Gtr. 1

                     [Am]               [F] 

e---------0-0-----0-----0-0-----0-------------------------------|
b---------1-1-----1-----1-1-----1-------------------------------|
g------2--2-2-----2-----2-2-----2-----2-2-----2-----2-2-----2---|
d------2--2-2-----2-----2-2-----2--3--3-3-----3-----3-3-----3---|
a------0--0-0--0--0--0--0-0--0--0--3--3-3-----3-----3-3-----3---|
e---(0)----------------------------1--1-1--1--1--1--1-1--1--1---|

Pm |..| |.| |.| |.| |.| |.| |.| |.|

(continued)

       [Em]      [Am]        [G]       [C]      [G]   

e----------------------3-0----0-0------|
b--------0-1----1------0-0----1-0------|
g------0-0-2----2----0-0-0----0-0-0----|
d------2-2-2---------0--------2---0----|
a------2-2-0---------------3------x----|
e---0-------------3---------------3----|


Gtr. 2

                       [Am]              

e--------------------------------------------------|
b--------1--------1--------1-----------1-----------|
g-------2--------2--------2-----------2------------|
d------2--------2--------2-----------2-------------|
a-----0--------0--------0-----------0--------------|
e--------------------------------------------------|

Pm|................................................|

(continued)

                       [F]              

e----------------------------------------------------------|
b-------1------------1------------1------------1-----------|
g------2------------2------------2------------2------------|
d-----3------------3------------3------------3-------------|
a----3------------3------------3------------3--------------|
e---1------------1------------1------------1---------------|

Pm|........................................................|

(continued)
                                    [G]                                                                                                              
e----------------------------------------------------------|
b----------------------------------------------------------|
g---(2)-----------------------------------------------0----|
d-----------------------------------------------------0----|
a-----------------------------------------------------x----|
e-----------------------------------------------------3----|

Pm|....|

1:11

Pre-Chorus:

Gtr. 1


e---------|
b---------|
g---------|
d---------|
a---x-0---|
e---x-0---|


1:13

Gtr. 1 and 3 (w/ heavy distortion)

                   [G5]                 [F5] 

e------------------------------------------------------------------------|
b------------------------------------------------------------------------|
g------------------------------------------------------------------------|
d---5--5--5-5-5-5-0--5--5--5-5-5-5-0--3--3--3-3-3-3-0--3--3--3-3-3-3-0---|
a---5--5--5-5-5-5-0--5--5--5-5-5-5-0--3--3--3-3-3-3-0--3--3--3-3-3-3-0---|
e---3--3--3-3-3-3-0--3--3--3-3-3-3-0--1--1--1-1-1-1-0--1--1--1-1-1-1-0---|


(continued)

[Fsus4]          [Fsus4]                 [F5]        [G5] 
fdbk. fdbk. dist. out
e---------------------------------------------------------|
b-----------------------------------------------------5---|
g---3-p(3.0)-3-p(3.0)-----------------5-5-5-5-5-5-5-5-5---|
d---3-p(3.0)-3-p(3.0)-3-3-3-3-3-3-3-3-5-5-5-5-5-5-5-5-5---|
a---3-p(3.0)-3-p(3.0)-3-3-3-3-3-3-3-3-3-3-3-3-3-3-3-3-3---|
e---------------------1-1-1-1-1-1-1-1---------------------|

Harm. Harm.

2:19

Pre-Outro Fill:

Gtr. 1


e----------------|
b----------------|
g----------------|
d---x--x--x------|
a---x--x--x--0---|
e---x--x--3^-0---|


2:21

Outro:

Gtr. 1 and 3

     [G5]        [F5]                 ~~~

e-------------------------------------|
b-------------------15--15-13-12------|
g-------------------------------------|
d---5--5--0-3--3-x--------------------|
a---5--5--0-3--3-x----------------0---|
e---3--3--0-1--1-x----------------0---|


2:35

End On:

     [G5]        [F5]       [G]                 

e----------------------------|
b-------------------0--------|
g-------------------0--------|
d---5--5--0-3--3--0-0--------|
a---5--5--0-3--3--0-x--------|
e---3--3--0-1--1--0-3--------|


Order of Song:

Intro x2

Bridge x2 ("I don't know what to do with myself...")

Verse x1 ("Planning ev'rything for two...")

Bridge x2

Verse x1

Pre-Chorus x1

Chorus x1 ("Like a summer rose")

Bridge x2

Verse x1

Pre-Chorus x1

Chorus x1

Pre-Outro x1

Outro x3

Ending x1

Important: The song above is NOT stored on the Chordie server. The original song is hosted at www.guitaretab.com. Chordie works as a search engine and provides on-the-fly formatting. Chordie does not index songs against artists'/composers' will. To remove this song please click here.

Text color:
Chord color:
Chord grids: 
Font size:    
Page size: 

Am C Em F F5 Fsus4 G G5
variations - click chord images

Login - add to songbook

Transpose chords

Tuning

Rating click stars to rate

Layout
Accuracy

SHARE PAGE  




You need to log in to post comments