Guitar Tabs, Chords and Lyrics


Candy Cane Children  White Stripes

 -----------------------------------



 -----------------------------------

------------------------------------------------------------------------------------------
------------------------------------------------------------------------------------------
   [Dm]    [Dmsus2]          [Dmsus4]                                                                                 
e|-----0h1-------3p2-------0h1---------------0h1---------1--
B|------------3----------2--------(3)-----------------------
G|-(2)------2-2-------2--------(2)---(2)--2------(3)--2-----
D|----------0---------0-------------------0-----------0-----
A|----------------------------------------------------------
E|----------------------------------------------------------

[Dm]Why don't you open [Dmsus2]me up? [Dm]
VERSE 1:
[Dm]Candy Cane Girl
G Dm F N.C.
Don't you know your name, girl? (yeah)
C N.C. Dm Dmsus4 Dmsus2
Twelve people gonna ask you just the same, girl

What a world
[G]Christmas once a [Dm]year, girl [Dmsus2]       [Dmsus4]
F N.C. C N.C. Dm
That's three hundred and sixty four tears, girl
   [Dm]                                                                                               
e|-1--------
B|---3------
G|-----2----
D|-------0--
A|----------
E|----------


CHORUS:
So when [C]Christmas [C/B]finally [A]comes
And [C]nobody's [C/B]got a [A]gun
And you [C]think it [C/B]might be [A]fun
To hang [G]around

Think again girl

Dm Dm Dm X
Dm Dm Dm X

[Dm]   [Dmsus2]       [Dmsus4]       Why don't you open [Dmsus2]me up       [Dm]   [Dmsus2]        [Dmsus4]       huh? [Dmsus2]

VERSE 2:
Candy Cane Boy
Don't you know your name, boy?
Nine people gonna tell you just the same, boy
You're alone, son
In the middle of a million
And nobody knows how to talk to children

CHORUS
Oh, when Christmas finally comes
And nobody's got a gun
And you think it might be fun
To get a new toy
Think again boy

BREAK 1:
Dm >
e|-0-1-3-1-0---0-1-0---0----1--0-1-3-1-0---0-1-0---0----1--0-1-2-2-1h2p1p0---0-1-0---0--1--
B|-----------3-------3------3------------3-------3------3------------------3------------3--
G|-----------------------2--2------------------------2--2--------------------------2----2--
D|--------------------------0---------------------------0-------------------------------0--
A|-----------------------------------------------------------------------------------------
E|-----------------------------------------------------------------------------------------


Played 4x: P.M.
   [Dm]                                                                                              
e|-0-1-3-1-0---0-1-0---0----1--
B|-----------3-------3------3--
G|-----------------------2--2--
D|--------------------------0--
A|-----------------------------
E|-----------------------------

Ahhh

CHORUS:
Oh, when Christmas finally comes
And no one's got a gun
And you think it might be fun
To make a stand
Think again man

Important: The song above is NOT stored on the Chordie server. The original song is hosted at www.guitaretab.com. Chordie works as a search engine and provides on-the-fly formatting. Chordie does not index songs against artists'/composers' will. To remove this song please click here.

Text color:
Chord color:
Chord grids: 
Font size:    
Page size: 

A C C/B Dm Dmsus2 Dmsus4 G
variations - click chord images

Login - add to songbook

Transpose chords

Tuning

Rating click stars to rate

Layout
Accuracy

SHARE PAGE  




You need to log in to post comments