Guitar Tabs, Chords and Lyrics


Im Finding It Harder To Be A Gentleman  White Stripes

e---------------------------------------------------------------------|


B---------------------------------------------------------------------|


G-----3-------------3-3-----------------------------3-----3-3-3-3-2---|

D-5-5-3-3-5-5-x-5-5-3-3-3-3-5-5---5-5-3-5-5-5-5-5-5-3-3-3-3-3-3-3-2-5-|
A-5-5-1-3-5-5-x-5-5-1-1-3-3-5-5---5-5-3-5-5-5-5-5-5-1-3-3-1-1-1-1-0-5-|
E-3-3---1-3-3-x-3-3-----1-1-3-3-x-3-3-1-3-3-3-3-3-3---1-1-----------3-|
well I'm finding it [G5]harder to be a [Bb5]gentleman [F5]every [G5]day
all the [Bb5]manners that I've been [F5]taught have slowly died [G5]away
[F5]but if I held the door open for you it wouldn't make your day
G5 Bb5 F5 Bb5 A5 G5x2

you think that I care about me and only me
when every single girl needs help climbing up a tree
well I know it don't take much to satisfy me

G5 Bb5 F5 Bb5 A5 G5x2

bridge:

e---------------|
B---------------|
G-5-3---3-5-7-7-|
D-5-3-5-3-5-7-7-|
A-3-1-5-1-3-5-5-|
E-----3---------|

[C5]Maybe it's what ever's in my[Bb5] head that's distracting[G5] me
but if [Bb5]i could find emotion to [C5]stimulate devotion
well then you'd [D5]see

G5 Bb5 F5 Bb5 A5 G5x2

Well I'm finding it hard to say that I need you twenty times a day
I feel comfortable so baby why don't you feel the same?
have a doctor come and visit us
and tell us which one is sane

G5 Bb5 F5 Bb5 A5 G5x2

Well I never said I wouldn't throw my jacket in the mud for you
but my father gave it to me so maybe I should carry you
then you said "You almost dropped me" so then I did
and I got mud on my [G5]shoes

Important: The song above is NOT stored on the Chordie server. The original song is hosted at www.guitaretab.com. Chordie works as a search engine and provides on-the-fly formatting. Chordie does not index songs against artists'/composers' will. To remove this song please click here.

Text color:
Chord color:
Chord grids: 
Font size:    
Page size: 

Bb5 C5 D5 F5 G5
variations - click chord images

Login - add to songbook

Transpose chords

Tuning

Rating click stars to rate

Layout
Accuracy

SHARE PAGE  




You need to log in to post comments