Guitar Tabs, Chords and Lyrics


Now Mary  White Stripes

[G]                                     
VERSE 1:
G * Bb5 F5
Now, Mary

Can't you find a way
To [C5]bring me [G5]down?
* Bb5 F5
I'm so sorry

That I had to go
And [C5]let you [G5]down

   [G]            [C]                                                        
e|----------------|
B|----------------|
G|----------------|
D|----------------|
A|-----0-0-2-0-3--|
E|-3-3------------|


CHORUS:
[C]Knowing [C7]you [C]I think
C7 G /e /f /f# /g
Things are gonna be fine
[A]But then again you'll
Probably change your [D]mind

e|-----------------|
B|-----------------|
G|-----------------|
D|-----------------|
A|-/5--5-5--3-2-0--|
E|-----------------|


VERSE 2:
I'm sorry, Mary, but
Being your mate
Means trying to find something
That you aren't going to hate
What a season
To be beautiful
Without a reason

BREAK:
C C7 G /e /f /f# G A A7 A A7 D

e|-----------------|
B|-----------------|
G|-----------------|
D|-----------------|
A|-/5--5-5--3-2-0--|
E|-----------------|


CHORUS

VERSE 3:
G * Bb5 F5
Mary

Can't you find a way
To [C5]bring me [G5]down?

(Acoustic guitar ends on G)

Important: The song above is NOT stored on the Chordie server. The original song is hosted at www.guitaretab.com. Chordie works as a search engine and provides on-the-fly formatting. Chordie does not index songs against artists'/composers' will. To remove this song please click here.

Text color:
Chord color:
Chord grids: 
Font size:    
Page size: 

A C C5 C7 D G G5
variations - click chord images

Login - add to songbook

Transpose chords

Tuning

Rating click stars to rate

Layout
Accuracy

SHARE PAGE  




You need to log in to post comments