Truth Doesnt Make A Noise

White Stripes

 Am
 Guitar 2:
|--------------------------------------------------------------------|
|--------------------------------------------------------------------|
|--------------------------------------------------------------------|
|--------------------------------------------------------------------|
|--2h3-5p3-2p0----0h2h3-5p3-2p0-0--0h2h3-5p3-2p0----0-2-3-5p3-2p0-0--|
|--------------3---------------------------------3-------------------|


Riff: Guitar 2 (Played 2x)
|--------------------------------|
|--------------------------------|
|--------------------------------|
|--------------------------------|
|--2h3-5p3-2p0----2h3-5p3-2p0-0--|
|--------------3-----------------|


Verse: Guitar 1
 AmG
 My baby's got a heart of stone
 CDAm
Can't you people just leave her alone
 GC
She never did nothing to hurt you  
 DAm
So just leave her alone
 G
The motion of her tiny hands
 CDAm
And the quiver of her bones below
 G
Are the signs of a girl alone
 CDC
And tell you everything you need to know

Chorus:
 CD
 I can't explain it, I feel it often
 Am
Every time I see her face

Piano Riff:
 Am
|--------------------------|
|----0-1-0----------0-1-0--|
|--2-------0-2-2--2--------|
|--------------------------|
|--------------------------|
|--------------------------|

 CD
But the way you treat her, it fills me with rage
E X X X
And I want to tear apart the place

Break (Played 2x)
Guitar 2 Piano
|-------------------------------------------------------|
|------------------1-1-1-0-1-----------------0-0-0---0--|
|--------------------------------------------------2----|
|-------------------------------------------------------|
|-0-2-3-5p3-2p0-0-------------2h3-5p3-2p0---------------|
|-----------------------------------------3-------------|


Riff

Verse:
 AmG
 You try to tell her what to do
 CDAm
And all she does is stare at you
 G
Her stare is louder than your voice
 CDC
Because truth doesn't make a noise
 D
No, truth doesn't make a noise
E X X X
Truth doesn't make a noise

Break

Chorus:
C N.C. D N.C.
I can't explain it, I feel it often
Am Piano Riff C
Every time I see her face
N.C.
But the way you treat her, it fills me with rage
E X X X
And I want to tear apart the place

Break: Played 4x (with some piano rhythm changes)

 Am

Am C D G
variations - click chord images
Transpose chords:
Tuning:
Cool service:
View: Size:
A  A  A
Rating:
Layout:
  • Currently 2.9/5 Stars.
  • 1
  • 2
  • 3
  • 4
  • 5
 
Accuracy:
  • Currently 3.4/5 Stars.
  • 1
  • 2
  • 3
  • 4
  • 5
 
click stars to rate
Chordie recommends:
Learn to play this song & others via video guitar lessons at JamPlay.com
Songbook:
Login to add this song to your songbook
Support the artist
Preview/buy this song
MSN Music
Why this non-profit ad?

 
login to add comments/video/corrections