Guitar Tabs, Chords and Lyrics


Fell In Love With A Girl Live  White Stripes

E|---|---|-2-|-0-|


B|-4-|-2-|-3-|-0-|


G|-4-|-2-|-2-|-1-|

D|-4-|-2-|-0-|-2-|
A|-2-|-0-|---|-2-|
E|---|---|---|-0-|
   [B]    [A]    [D]    [E]                      
Chorus
E|---|---|-2-|-0-|---|---|-----|
B|---|-2-|-3-|-0-|---|-2-|-----|
G|---|-2-|-2-|-1-|---|-2-|-----|
D|-4-|-2-|-0-|-2-|-4-|-2-|-4-R-|
A|-4-|-0-|---|-2-|-4-|-0-|-4-R-|
E|-2-|---|---|-0-|-2-|---|-2-R-|

  [F#5]     [A]    [D]    [E]   [F#5]     [A]    [F#5]          
Fill 1
E|---------------5-7-8-7-5---5------------5-7-8-7-5---5--------|
B|-2--3--4--3--2-----------8----2-2-2---2-----------8---2------|
G|-2--3--4--3--2----------------2-2-2---2---------------2------|
D|-2--3--4--3--2----------------2-2-2-5-2---------------2------|
A|-0--1--2--1--0----------------0-0-0-5-0---------------0(3x)--|
E|------------------------------------3----------------------3-|


Bridge (w/ heavy ass distortion)
G|-2-2--2---------------------2----|-%-|-%-|
D|-2-2--2---------------------2----|-%-|-%-|
A|-0-0--0---------------------0----|-%-|-%-|
E|--------3~~~3-0-2-2-0-1-1-0---3^-|-%-|-%-|


Fill 2
B|---3p2---------0--------------3p2-|
G|--------------0------0---0---2----|
D|-------------0------2---4---2-----|
A|-0--------0h2------3---5---0------|
E|-------0h3------------------------|


Verse 3 (This verse is just too random to tab so I’ll just put the chords)
(PM some of it too)
B|-2-|-0-|-1-|-3-|---|---|-0-|---|---|-0-|-1-|-3-|
G|-2-|-0-|-0-|-2-|-2-|---|-0-|-2-|-2-|-0-|-0-|-2-|
D|-2-|-0-|-2-|-0-|-2-|-3-|-0-|-2-|-2-|-0-|-2-|-0-|
A|-0-|-X-|-3-|-0-|-0-|-3-|-X-|-0-|-0-|-X-|-3-|-0-|
E|---|-3-|---|---|---|-1-|-3-|---|---|-3-|---|---|

   [A]    [G]    [C]   [D5/A]     [A5]    [F5]    [G]    [A5]    [A5] [G] [C] [D5/A] 
Verse 3 (cont.)
B|-2-|-0-|---|-3-|-2-|---|---|-2-|
G|-2-|-0-|-5-|-2-|-2-|---|---|-2-|
D|-2-|-0-|-5-|-0-|-2-|-3-|-5-|-2-|
A|-0-|-X-|-3-|-0-|-0-|-3-|-5-|-0-|
E|---|-3-|-3-|---|---|-1-|-3-|---|

  [A]     [G]   [C5/GD5/A]         [A]    [F5]    [G5]    [A]      
Fill 3
E|-3~~~-|

Instrumental Chorus
B|-2----2----------------------------|
G|-2----2----4----4-5--5--7--7--2----|
D|-2-XX-2-XX-5----5-5--5--7--7--2----|
A|-0-XX-0-XX-5-XX-5-3--3--5--5--0----|
E|-----------3-XX-3---------------3~~|


Instrumental Chorus (cont.)
B|-2----2--------------------------2--3--|
G|-2----2----4----4-5--5--7--7--2--2--3--|
D|-2-XX-2-XX-5----5-5--5--7--7--2--2--3--|
A|-0-XX-0-XX-5-XX-5-3--3--5--5--0--0--1--|
E|-----------3-XX-3----------------------|


[End]B|-2[-]-| Do that 5x
G|-2-|
D|-2-|
A|-0-|

Song Structure: -
Intro
Verse (“Fell in love with a girl….”)
Chorus (“She turns to me……”)
Verse (“Red hair with a curl…”)
Chorus
Post-Chorus (“Ahhhhhh……”)
Chorus
Fill 1
Bridge
Fill 2
Verse 3 (“Dead leaves and the dirty ground……”)
Fill 3
Instrumental Chorus
Intro
Verse (“Fell in love with a girl….”)
Chorus
Post-Chorus
Chorus (“Can’t think………”)
[End]                                     
Okay there you go. Nice little joining of 2 great
songs by the white stripes. If you have any comments corrections or suggestions
email me at toxic345x@yahoo.ca

Important: The song above is NOT stored on the Chordie server. The original song is hosted at www.guitaretab.com. Chordie works as a search engine and provides on-the-fly formatting. Chordie does not index songs against artists'/composers' will. To remove this song please click here.

Text color:
Chord color:
Chord grids: 
Font size:    
Page size: 

A A5 B C D D5/A E F#5 F5 G G5
variations - click chord images

Login - add to songbook

Transpose chords

Tuning

Rating click stars to rate

Layout
Accuracy

SHARE PAGE  




You need to log in to post comments