Guitar Tabs, Chords and Lyrics


Whos To Say  White Stripes

Intro:
|-----------------(Play 4 Times)-------------|
|-----------------------------------------3--|
|------2-----------0-------2--------0---2----|
|----2---2-------0-------2---2----2---0------|
|-0------------2------0---------3------------|
|-----------3--------------------------------|


Verse:
[A]Who's to [G]say that [A]I'm un[C]happy [D]  [A]
'Cause I [G]rarely [A]smile [C]  [D]  [A]
Sittin', [G]hopin', [A]dreamin', [C]waitin'[D]  [A]
For my [G]ship to [A]sail [C]  [D]
Who's to [C]say this [D]time I've [C]wasted [D]
Someday [C]won't get [D]used [A/C]    [A/C]    [A]
Maybe [G]if you [A]come around [C]  [D]  [A]
I'll start to [G]get en[A]thused

Bridge:
[A]Who's to [D]say[D]   [C]  [C]
Who's to [A]say

Break: Play 4 Times
[A5]    [A5]   [A5]   [A5]    [G5]    [G5]   [G5]   [G5]    [A5]    [A5]   [A5] [A5] [C5] [D5] 
[D5]   [D5]     [C5]   [C5]                          
|----------------------|
|----------------------|
|-------------------0--|
|------3----------0----|
|----3---3------2------|
|-1---------/3---------|


Verse 2:
(Play for the first 2 lines of the verse as well)
e|-----------(Play 2 Times)------------------|
B|-------------------------------------------|
G|------2-----------0-------2--------0----0--|
D|----2---2-------0-------2---2----2---/4----|
A|-0------------2------0---------3-----------|
E|-----------3-------------------------------|


Who's to say that I'm obsessed
With everything you do
Just because it seems my schedule
Seems to shadow you
Who's to say that tired cliché is
More fish in the sea
And I don't mind treading water
'Cause you're the one for me

Chours:
[D]You say that by [A]now
I should [E]know you'll never [A]love me
But [D]who's to say that [A]what has never
[C]Been will [D]never [A]be
What has [C]been will [D]never [A]be

Break

Verse 3:
Who's to say in time I wouldn't
Learn how to relax
You'd forget about my clammy
Hands and my nervous laugh
Who's to say the way you look at
Him is truly love
Maybe they should realize
I fit you like a glove

Chours then Break

Important: The song above is NOT stored on the Chordie server. The original song is hosted at www.guitaretab.com. Chordie works as a search engine and provides on-the-fly formatting. Chordie does not index songs against artists'/composers' will. To remove this song please click here.

Text color:
Chord color:
Chord grids: 
Font size:    
Page size: 

A A/C A5 C C5 D D5 E G G5
variations - click chord images

Login - add to songbook

Transpose chords

Tuning

Rating click stars to rate

Layout
Accuracy

SHARE PAGE  




You need to log in to post comments