Guitar Tabs, Chords and Lyrics


Astro  White Stripes

e|------------|


B|------------|


G|-3b--5b--3--| (three bent to five, then relaxed down to three)

D|------------|
A|------------|
E|------------|
May[G5]be [E5]Jasper [G5]does the [E5]As-[G5]tro[E5]   [G5]   [E5]
May[G5]be [E5]Jasper [G5]does the [E5]As-[G5]tro[E5]   [G5]   [E5]
May[G5]be [E5]Jasper [G5]does the [E5]As-[G5]tro, [E5]As-[G5]tro
Rhythm: 1 2 + 3 4 1 2 3 + 4 1 2
Chords: E5 G5 E5 A5 B5 B5 A5 G5 F#5

BREAK 1: Played 1x

VERSE 2:
Maybe Lilly does the Astro
Maybe Lilly does the Astro
Maybe Lilly does the Astro, Astro

BREAK 2:
Rhythm: 1 2 3 4 1 2 3 4 1 2 3 4 1 2 3 4 1 2 3 4 1 2 3 4 1 2 3
C[1]hor[2]ds:[3] A5[4]   ]   [1]   [2] G5[3] E5 N.C.     A5          G5 E5 N.C.     A5          G5 E5 N.C.
B* B5 B5 A5 G5 F#5
Words: Whoo! Hey!

BREAK 1

VERSE 3:
Well, maybe Jackson does the Astro
Maybe Jackson does the Astro
Maybe Jackson does the Astro Astro

Rhythm: 1 2 3 4 1 2 3 4 1 2 3 4 + 1 + 2 + 3 +
Chords: A5 G5 A5 N.C. G5 F#5 E5 G5 E5 G E5 G5 G5 G5 E5 G5

VERSE 4:
[G5]Maybe [E5]Momma [G5]does the [E5]As-[G5]tro [E5]   [G5]   [G5]   [G5]   [E5]
May[G5]be [E5]Momma [G5]does the [E5]As-[G5]tro,[E5]   [G5]   [G5]   [G5]   [E5]
May[G5]be [E5]Momma [G5]does the [E5]As-[G5]tro, [E5]As-[G5]tro.[E5]

BREAK 2 (without words and B*)

P.M.
Played 4x
Rhythm: 1 2 3 4 +
Chords: E5 E5 E5 E5 G5

VERSE 5:
Well [E5]may[G5]be [E5]Tesla` [E5]does the [E5]As-[E5]tro[G5]   [E5]   [E5]   [E5]          `Nikola Tesla, famous electrician
May[E5]be [G5]Tes[E5]la  [E5]does the [E5]As-[E5]tro [G5]   [E5]   [E5]   [E5]
May[E5]be [G5]Ed-[E5]is-[E5]on` is [E5]A  [E5]C  [G5]-  [E5]D  [E5]C  [E5]   [E5]               `Thomas Edison, see above

   [A]                                                                                                          
e|---3b---0---0-3-0---0---------------------------|
B|----------3-------3-0-3b---2b-------0--0--0--0--|
G|-2----2-----------2---3b---2b--0----0--0--0--0--|
D|-2-------------------(3b)-(2b)-0-2--------------|
A|-0----------------------------------------------|
E|------------------------------------------------|


Slow Tempo
Played 4x
Rhythm: 1 2 3 4 + 1 + 2 3 4
Chords: E5 G5 E5 G5 G5 G5 E5 G5 E5

SOLO: (over ryhthm guitar, feedback comes in a few seconds prior)
T<
T
e|---------------------------------------------------------------------------------------------------|
B|-10b12-b12-b12-b12-b12-b12-b12-b12-10b12-b12-b12-b12-b12-b12-b12-b12-10p8-5-5-5-8-8-8-8/18---------|
G|---------------------------------------------------------------------------------------------------|
D|---------------------------------------------------------------------------------------------------|
A|---------------------------------------------------------------------------------------------------|
E|---------------------------------------------------------------------------------------------18/0--|


Under end of SOLO:
[A5]   [B5]   [B5]   [A5]   [G5]   [F#5]    [E5]                  

Important: The song above is NOT stored on the Chordie server. The original song is hosted at www.guitaretab.com. Chordie works as a search engine and provides on-the-fly formatting. Chordie does not index songs against artists'/composers' will. To remove this song please click here.

Text color:
Chord color:
Chord grids: 
Font size:    
Page size: 

A A5 B5 E5 F#5 G5
variations - click chord images

Login - add to songbook

Transpose chords

Tuning

Rating click stars to rate

Layout
Accuracy

SHARE PAGE  




You need to log in to post comments