Guitar Tabs, Chords and Lyrics


Im Bound To Pack It Up  White Stripes

 --------------------------------



 --------------------------------

-----------------------------------------------------------------------------------------
------------------------------------------------------------------------------------------
[D]  [Dsus4]      [D]  [Dsus4]      [D]    [F]  [Fsus4]      [F]  [Fsus4]      [F] [G] [Gsus4] [G] [Gsus4] [G] [D] [Dsus4] [D] [Dsus4] [D] 
BASS RIFF
e|----------|
B|----------|
G|----------|
D|-3p0---0--|
A|-----3----|
E|----------|


VERSE 1: Same as the intro, but I've written the chords more simply
     [D]   I've thought [Dsus4]about it for a while
     [F]   And thought [Fsus4]about the many miles
G Gsus4 D BASS RIFF
But I think it's time that I've gone away
     [D]   The feelings [Dsus4]that you had for me
     [F]   Have gone a[Fsus4]way it's plain to see
     [G]   And it looks to [Gsus4]me that you're pulling away

CHORUS:
ELECTRIC VIOLIN RIFF:
e|--------------|
B|-3h5-6p5-3-1--|
G|--------------|
D|--------------|
A|--------------|
E|--------------|

      [C]  I'm gonna [G]pick it up
C G D Dsus4 D Dsus4 D ELECTRIC VIOLIN RIFF
I'm gonna pick it up today
      [C]  I'm bound to [G]pack it up
      [C]  I'm bound to [G]pack it up and go a[F]way [G]

ELECTRIC VIOLIN SOLO: Over BREAK
e|------------------------------------------3p1-0-0-1----|
B|-3h5-6p5-3-1-----3-5-3-----3-5-----5-6--------------3--|
G|-------------------------------------------------------|
D|-------------------------------------------------------|
A|-------------------------------------------------------|
E|-------------------------------------------------------|


VERSE 2:
I find it hard to say to you
That this is what I have to do
But there is no way that I'm gonna stay
There are so many things you need to know
And I want to tell you before I go
But it's hard to think of just what to say

CHORUS

VERSE 3:
I'm sorry to leave you all alone
You're sitting, silent by the phone
But we'd always known there would come a day
The bus is warm and softly lit
And a hundred people riding it
I guess I'm just another running away

CHORUS

Oh yea-ah yea-ea-ah

[D]  [Dsus4]      [D]  [Dsus4]      [D]    [F]  [Fsus4]      [F]  [Fsus4]      [F] [G] [Gsus4] [G] [Gsus4] [G] [D14] 

Important: The song above is NOT stored on the Chordie server. The original song is hosted at www.guitaretab.com. Chordie works as a search engine and provides on-the-fly formatting. Chordie does not index songs against artists'/composers' will. To remove this song please click here.

Text color:
Chord color:
Chord grids: 
Font size:    
Page size: 

C D Dsus4 F Fsus4 G Gsus4
variations - click chord images

Login - add to songbook

Transpose chords

Tuning

Rating click stars to rate

Layout
Accuracy

SHARE PAGE  




You need to log in to post comments