Guitar Tabs, Chords and Lyrics


Do   White Stripes



Artist: The White Stripes
-Album: The White Stripes
--Song: Do

Transcribed by Exo M7.

For questions/comments/tab requests, the email is jd0922[at]yahoo[dot]com.

Tab is for one electric guitar (Jack White).

Intro

1st:----------------------------|
2nd:----------------------------|
3rd:---(1)-2p1-2p1-----(1)-2p1--|
4th:----------------------------|
5th:----------------------------|
6th:-0--------------0-----------| x4

1st:------------------|
2nd:------------------|
3rd:---------------0--|
4th:-------0---0h2----|
5th:-----2---0--------|
6th:-0h3--------------|

Verse 1

1st:-----------------------------------|
2nd:-----------------------------------|
3rd:---(1)-2p1-2p1-----(1)-2p1---------|
4th:-----------------------------------|
5th:-----------------------------------|
6th:-0--------------0----------3----2--|

1st:----------------------------|
2nd:----------------------------|
3rd:---(1)-2p1-2p1-----(1)-2p1--|
4th:----------------------------|
5th:----------------------------|
6th:-0--------------0-----------|

1st:-----------------------------------|
2nd:-----------------------------------|
3rd:---(1)-2p1-2p1-----(1)-2p1---------|
4th:-----------------------------------|
5th:-----------------------------------|
6th:-0--------------0----------3----2--|

1st:----------------------------|
2nd:----------------------------|
3rd:---(1)-2p1-2p1-----(1)-2p1--|
4th:----------------------------|
5th:----------------------------|
6th:-0--------------0-----------| x2

1st:-----------------------------------|
2nd:-----------------------------------|
3rd:-4---------------------------------|
4th:-4---------------------------------|
5th:-2---------------------------------|
6th:---------------------------3----2--|

Bridge 1

1st:----------------------------|
2nd:----------------------------|
3rd:---(1)-2p1-2p1-----(1)-2p1--|
4th:----------------------------|
5th:----------------------------|
6th:-0--------------0-----------| x2

1st:---------------------------------|
2nd:---------------------------------|
3rd:---------------------------------|
4th:---5--5--5-------9--9--9-9-9-----|
5th:---5--5--5-5-5-5-9--9--9-9-9-----|
6th:-0/3--3--3-3-3-3/7--7--7-7-7-7/--|

1st:---------------------------------------|
2nd:---------------------------------------|
3rd:---(1)-2p1-2p1-----(1)-2p1----(1)-2p1--|
4th:---------------------------------------|
5th:---------------------------------------|
6th:-0--------------0------------0---------|

1st:------------------|
2nd:------------------|
3rd:---------------0--|
4th:-------0---0h2----|
5th:-----2---0--------|
6th:-0h3--------------|

Verse 2

(same as verse 1)

Bridge 2

1st:------------------------------------------------------------|
2nd:------------------------------------------------------------|
3rd:---(1)-2p1-2p1-----(1)-2p1----(1)-2p1(2)--------------------|
4th:---------------------------------------------------------7--|
5th:--------------------------------------------------7------7--|
6th:-0--------------0------------0--------(0)-2---3---5------5--| x2

1st:----------------------------------|
2nd:----------------------------------|
3rd:---(1)-2p1-2p1-----(1)-2p1-4---4--|
4th:---------------------------4---4--|
5th:---------------------------2---2--|
6th:-0--------------0-----------------|

1st:-----------------------------------------|
2nd:-----------------------------------------|
3rd:---(1)-2p1-2p1-----(1)-2p1----(1)-2p1h2--|
4th:-----------------------------------------|
5th:-----------------------------------------|
6th:-0--------------0------------0-----------|

1st:------------------|
2nd:------------------|
3rd:---------------0--|
4th:-------0---0h2----|
5th:-----2---0--------|
6th:-0h3--------------|

Verse 3

(same as verse 1)

Ending

1st:----------------------------    ---|
2nd:----------------------------    -0-|
3rd:---(1)-2p1-2p1-----(1)-2p1--    -1-|
4th:----------------------------    -2-|
5th:----------------------------    -2-|


Important: The song above is NOT stored on the Chordie server. The original song is hosted at www.guitaretab.com. Chordie works as a search engine and provides on-the-fly formatting. Chordie does not index songs against artists'/composers' will. To remove this song please click here.

This song is displayed as text-only. Transposing and tuning is only available for chordpro-songs.

Login - add to songbook

Rating click stars to rate

Layout
Accuracy

SHARE PAGE  




You need to log in to post comments