"yes"; ?> In Your Pocket by White Stripes - guitar chords, guitar tabs and lyrics - chordie

In Your Pocket

White Stripes

-------------------------------------------------------------------------------

-------------------------------------------------------------------------------

 DGCGA
e|---------2-----------------------------------------------------------------|
B|-------3---3--------------------------------------------------2h3----------|
G|-----2-------2------------0-------------0---------0---------2------------o-|
D|---0-----------0--------0---0---0-----2---2-----0---0-----2--------------o-|
A|----------------------2-------2-----3---------2---------0------------------|
E|--------------------3------------------------------------------------------|


Verse
 AAmGDAmGDC
e|--0---0-----------3----2--h3-----0-------3---2--h3-----3-------------------|
B|--2---1-----------3----3---------1-------3---3---------3-------------------|
G|--2---2-----------0----2---------2-------0---2---------0-------------------|
D|--2---2-----------0----0---------2-------0---0---------2-------------------|
A|--0---0-----------2--------------0-------2-------------3-------------------|
E|------0-----------3--------------0-------3---------------------------------|

 GCFA
e|--33---------3-------3---------1-----0---|
B|--33---------3-------3---------1-----2---|
G|--00---------0-------0---------2-----2---|
D|--00---------0-------2---------3-----2---|
A|--22---------2-------3---------3---------|
E|--33-0-1-2-3-3-----------------1---------|


 CGA
e|--3-----3------0---|
B|--3-----3------2---|
G|--0-----0------2---|
D|--2-----0------2---|
A|--3-----2------0---|
E|--------3----------|


 DG
 You've got her in your pocket
 CGA
And there's no way out now
 DG
 Put it in the safe and lock it
 CGA
Cause it's home sweet home

 AmGD
 Nobody ever told you that it was the wrong way
 AmGD
 To trick a woman, make her feel she did it her way
 CG
 And you'll be there if she ever feels blue
 CF
 And you'll be there when she feels someone new
 A
What to do
 D
Well you know

 DG
 You've got her in your pocket
 CGA
And there's no way out now
 DG
 Put it in the safe and lock it
 CGA
Cause it's home sweet home

 AmGD
 The smile on your face made her think she had the right one
 AmGD
 Then she thought she was sure By the way you two could have fun
 CG
 But now you're scared You think she's running away
 CF
 You search in your hand for something clever to say
 A
Don't go away
 D
Cause I want

 DG
 You've got her in your pocket
 CGA
And there's no way out now
 DG
 Put it in the safe and lock it
 CGA
Cause it's home sweet home

 AmGD
 And in your own mind you know your're lucky just to know her
 AmGD
 And in the beginning all you wanted was to show her
 CG
 But now she might leave like she's threatened before
 CF
 Grab hold of her fast before her feet leave the floor
 A
And she's out the door
 D
Cause you want

 DG
 You've got her in your pocket
 CGA
And there's no way out now
 DG
 Put it in the safe and lock it
 CGA
Cause it's home sweet home


A Am C D F G
variations - click chord images
Transpose chords:
Tuning:
Cool service:
View: Size:
A  A  A
Rating:
Layout:
  • Currently 4.5/5 Stars.
  • 1
  • 2
  • 3
  • 4
  • 5
 
Accuracy:
  • Currently 2.8/5 Stars.
  • 1
  • 2
  • 3
  • 4
  • 5
 
click stars to rate
Chordie recommends:
Learn how to play guitar at JamPlay.com
Songbook:
Login to add this song to your songbook
Support the artist
Preview/buy this song
MSN Music
Why this non-profit ad?

 
login to add comments/video/corrections