Guitar Tabs, Chords and Lyrics


Red Bowling Ball Ruth  White Stripes

|---------------------------------------------------------------------|


|---------------------------------------------------------------------|


|----8b--8-6-8--8-6-8-6b-------6b--6-8b--8-6--------------------------|

|-8----------------------8--8-----------------8--8--8-6-8--8-6-8--8---|
|-8-------------------------8-----------------8-----------------------|
|-6-------------------------6-----------------6-----------------------|
|-------------------------------------|
|-------------------------------------|
|-----8--8b-8-6--8-8b-8-6--8-6--------|
|--8---------------------------8-(6)--|
|--8----------------------------------|
|--6----------------------------------|
[Bb5]    [Eb5]    [Ab5]    [Bb5]                         
VERSE 1:
[Bb5]Well, pay attention [Eb5]    [Ab5]
At[Bb5]tention to my words [Eb5]    [Ab5]    [Bb5]
I love ya [Eb5]    [Ab5]
I [Bb5]don't know what you heard [Eb5]    [Ab5]    [Bb5]

And this fear

Has got to go for sure

|-----------------------------6--------------------------------------|
|-------------------------------9b-----------------------------------|
|----6--8-6-8b--8-6-8-6------------6-8b--8-6~------------------------|
|-8---------------------8--8-------------------8--8-8----6-6----6-6--|
|-8------------------------8-------------------8-------8------8------|
|-6------------------------6-------------------6---------------------|
|---------------------------|
|---------------------------|
|-----6--6-x-x-6-x-x-6------|
|--8-------x-x---x-x---(8)--|
|--8-------x-x---x-x--------|
|--6------------------------|


Played 2x:
[Bb5]    [Eb5]    [Ab5]    [Bb5]                         
VERSE 2:
Red Bowling Ball
Red Bowling Ball Ruth
Well that's somethin'
Then I should know the truth
I said, you roll it
And then it breaks your tooth

|----------------------------------------------18-18--18-18p16B--|
|----14-----14-16b--16-16-16-14-----14-18~--14-------------------|
|--------15------------------------------------------------------|
|-8------------------------------8-------------------------------|
|-8------------------------------8-------------------------------|
|-6------------------------------6-------------------------------|
|-------------------------------------|
|-----14b--16p14-16b--16-14-16-p14----|
|----------------------------------15-|
|--8----------------------------------|
|--8----------------------------------|
|--6----------------------------------|
|------------------------------------|
|------------------------------------|
|-----6--x-x-x-6-8b-8-8b-8-8b-8-6----|
|--8-----x-x-x--------------------8--|
|--8-----x-x-x-----------------------|
|--6---------------------------------|


Played 2x:
[Bb5]    [Eb5]    [Ab5]    [Bb5]                         
VERSE 3:
Saint Peter
Are you in the wrong town?
Well, I love this girl
So hell shall come around
And you leavin'
Will be the only sound
Hey!

[Bb5]                                  

Important: The song above is NOT stored on the Chordie server. The original song is hosted at www.guitaretab.com. Chordie works as a search engine and provides on-the-fly formatting. Chordie does not index songs against artists'/composers' will. To remove this song please click here.

Text color:
Chord color:
Chord grids: 
Font size:    
Page size: 

Ab5 Bb5 Eb5
variations - click chord images

Login - add to songbook

Transpose chords

Tuning

Rating click stars to rate

Layout
Accuracy

SHARE PAGE  




You need to log in to post comments