Guitar Tabs, Chords and Lyrics


Baby Blue Live  White Stripes

|--------------------------|


|--------------------------|


|--------------------------|

|-------0h2-0---------0-2--|
|-----------------0-2------|
|--0--0-------3-0----------|
|--------------------------|
|--------------------------|
|--------------------------|
|-------0h2-0---------0-0--|
|-----------------0-2------|
|--0--0-------0-3----------|
[E]Well, I got a brand new lover
I love her, yes I do
E5 P.M.
She's my one and only

And her name is Baby Blue
A-PROG
Oh, well (baby, baby, baby)
E-PROG
Well, Baby Blue, yeah
[B5]Ahhhhh, Ahhh, [A5]Ahhhhh
Her name is Baby [E5]Blue
Oh, [B5]now, now, now

Hey Meg!

Verse 2:
E5 N.C.
Now, when I first met my baby

Riff:
e|------------
B|------------
G|------------
D|------------
A|-----0------
E|-0-3---3-0--                   Riff

I say, "How do you do?"

She looked into my eyes and say
"My [E5]name is Baby Blue"
A-PROG
Oh-oh-oh-oh, baby, baby, baby
E-PROG
Well, Baby Blue, oooh-oh
[B5]Ahhhhh, Ahhh, [A5]Ahhhhh
Yeah, her name was Baby [E5]Blue
Oh, yeah, [B5]now, now
E5 N.C.
C'mon Meg!

Solo
|-3-0-0-0-0-0-3-0--0--0-0-0-0-3-0--0-0---------------12-12-12-15-12-12-12--|
|----------------3--0-------------3----------------------------------------|
|--------------------------------------2-2-0h2p0h2p0-----------------------|
|--------------------------------------------------------------------------|
|--------------------------------------------------------------------------|
|--------------------------------------------------------------------------|
|--17-17b-17b18-17b19-12-12-12-----15-17-15-12-12-12-12--|
|--------------------------------------------------------|
|--------------------------------------------------------|
|-----------------------------(10b)----------------------|
|--------------------------------------------------------|
|--------------------------------------------------------|


A-PROG E5 N.C.

|--0-0-0-0-3-0-0-3-0-5-0-7-0-0-10-0-0-10-0-0-10-0-0-10-0-0-0-0--|
|---------------------------------------------------------------|
|---------------------------------------------------------------|
|---------------------------------------------------------------|
|---------------------------------------------------------------|
|---------------------------------------------------------------|


P.M.:
[B5]   [A5]   [E5]   Oh, [B5]mmm, alright

Verse 3:
Now, when I first met my baby
I say, "How do you do?"
She looked into my eyes and say
"My name was Baby Blue"
Oh, baby, baby, baby, baby, oh
Well, Baby Blue, yeah
Ahhhhh, Ahhh, Ahhhhh
Ohhhhh, Ohhh, Ahhhhh
Ahhhhh, Ahhh, Ahhhhh
Yeah, her name was Baby Blue!

Ending
|--3-0-0-0--------------------|
|-----------------------------|
|----------2-0----------------|
|--------------2--------------|
|----------------0-2-0--------|
|----------------------3-0-3--|

[A]  [E7]                                

Important: The song above is NOT stored on the Chordie server. The original song is hosted at www.guitaretab.com. Chordie works as a search engine and provides on-the-fly formatting. Chordie does not index songs against artists'/composers' will. To remove this song please click here.

Text color:
Chord color:
Chord grids: 
Font size:    
Page size: 

A A5 B5 E E5 E7
variations - click chord images

Login - add to songbook

Transpose chords

Tuning

Rating click stars to rate

Layout
Accuracy

SHARE PAGE  




You need to log in to post comments