Chordie logo


300 Mph Torrential Outpour Blues   White Stripes



300 MPH Torrential Outpour Blues by the White Stripes 
	
(standard tuning)

p- pull-off
h- hammer-on
b- bend
r- release from bend
/- slide




|-----|--------------|----------------------|
|-----|--------------|----------------------|
|-----|--------------|----------------------|
|-----|--6-6-6-4-----|--6-6-6-4--/7-6-------|
|-----|--7-7-7-5-----|--7-7-7-5-------7-----|
|--0--|-----------0--|-------------------0--|


|---------------------|----------------|--------------|
|---------------------|------7-5--5-7--|--------------|
|---------------------|--5/7------5-7--|--------------|
|--6-6-6-6-6-6-6-6-4--|----------------|----6-6-6--7--|
|--7-7-7-7-7-7-7-7-5--|----------------|----7-7-7-----|
|---------------------|----------------|--0-----------|


|-------------|------------|---------------|
|------10--9--|----10-9----|--7-7-7-5------|
|--7/9--------|--9------9--|--7-7-7-5------|
|-------------|------------|---------------|
|-------------|------------|---------------|
|-------------|------------|---------------|

Rhythm 
|-------------------|
|-------------------|
|-------------------|
|---------7-7-7-----|
|--3-3-3--5-5-5-----|
|--0-0-0------------|


|--17b(19)r-17-17--15-15-17-15-17-17-15----15--|
|---------------------------------------17-----|
|----------------------------------------------|
|----------------------------------------------|
|----------------------------------------------|
|----------------------------------------------|

|--------------------------------------------------|
|-b17r-b17r--15-17-15—b17r--15-17p15-15—17p15------|
|-b17r-b17r-----------b17r--------------------17---|
|--------------------------------------------------|
|--------------------------------------------------|
|--------------------------------------------------|


|--15p12--12-12-12--12-15---12--12-12-12—15b(16)-- |
|--------------------------------------------------|
|--------------------------------------------------|
|--------------------------------------------------|
|--------------------------------------------------|
|--------------------------------------------------|


|-------------------|
|-----0-3-3--5------| 
|--12---2-2--5------|
|-------------------|
|-------------------|
|-------------------|


|--17b-r-17-17-17--17-20b(23)-17-20b(23)--17-20-17----------|
|-----------------------------------------------------------|
|-----------------------------------------------------------|
|-----------------------------------------------------------|
|-----------------------------------------------------------|
|-----------------------------------------------------------|


Important: The song above is NOT stored on the Chordie server. The original song is hosted at www.guitaretab.com. Chordie works as a search engine and provides on-the-fly formatting. Chordie does not index songs against artists/composers will. To remove this song please click here.

This song is displayed as text-only. Transposing and tuning is only available for chordpro-songs.

Login - add to songbook

Rating click stars to rate

Layout
Accuracy

SHARE PAGE  




You need to log in to post comments