Guitar Tabs, Chords and Lyrics


Jolene Live  White Stripes

 -------------------------------------------



 -------------------------------------------

---------------------------------------------------------------------------
------------------------------------------------------------------------
   [Dmsus2]                                                                                
e|------0--0h1p0------0h1p0------|
B|---------------3----------3----|
G|----2--------------------------|
D|-0---------------0----------0--|
A|-------------------------------|
E|-------------------------------|

CHORUS:
Jo[Dm]lene, Jo[F5]lene, Jo[C5]lene, Jo[Dm]lene [Dmsus2]
I'm [C5]beggin' of you, please don't take my [Dm]man [Dmsus2]       [Dmsus2]
Jo[Dm]lene, Jo[F5]lene, Jo[C5]lene, Jo[Dm]lene [Dmsus2]
[C5]Please don't take him, just because you [Dm]can [Dmsus2]       [Dmsus2]

VERSE 1:
Your [Dm]beauty is [F5]beyond compare with [C5]flaming locks of [Dm]auburn hair
With [C5]ivory skin and eyes of emerald [Dm]green [Dmsus2]       [Dmsus2]
Your [Dm]smile is like a [F]breath of spring, your [C5]voice is soft like [Dm]summer rain
And [C5]I cannot compete with you, Jo[Dm]lene [Dmsus2]       [Dmsus2]
And he [Dm]talks about you [F5]in his sleep, and there is [C5]nothin' I can [Dm]do to keep
From [C5]cryin' when he calls your name, Jo[Dm]lene [Dmsus2]

CHORUS:

Dm Dm/e
e|----1b-1b-1b-2--|
B|-3-----------3--|
G|-------------2--|
D|-------------0--|
A|-------------0--|
E|-------------0--|


Jo[Dm]lene, Jo[F5]lene, Jo[C5]lene, Jo[Dm]lene [Dmsus2]
C5 N.C. Dm Dmsus2 X Dmsus2
I'm beggin' of you, please don't take my man
Jo[Dm]lene, Jo[F5]lene, Jo[C5]lene, Jo[Dm]lene [Dmsus2]
C5 N.C. Dm Dmsus2
Please don't take him, even though you can

   [Dmsus2]                                                                                
e|------0--0h1p0------3p1p0--------1----------3p10------0h1----0h1-----|
B|---------------3----------3---------0------------3---------3------3--|
G|----2--------------------------2-------2-----------------------------|
D|-0---------------0----------0------------0---------0-----------------|
A|---------------------------------------------------------------------|
E|---------------------------------------------------------------------|


VERSE 2:
Now, I can easily understand how you could easily take my man
But you do not know what he means to me, Jolene
Well, you could have your choice of men, but I could never love again
He's the only one for me, Jolene
And I had to have this talk with you, 'cause my happiness, it depends on you
And whatever you decide to do, Jolene

CHORUS

[Dm]                                  

Important: The song above is NOT stored on the Chordie server. The original song is hosted at www.guitaretab.com. Chordie works as a search engine and provides on-the-fly formatting. Chordie does not index songs against artists'/composers' will. To remove this song please click here.

Text color:
Chord color:
Chord grids: 
Font size:    
Page size: 

C5 Dm Dmsus2 F F5
variations - click chord images

Login - add to songbook

Transpose chords

Tuning

Rating click stars to rate

Layout
Accuracy

SHARE PAGE  




You need to log in to post comments