Guitar Tabs, Chords and Lyrics


Take Me With You  Whitesnake

|------------------------|


|------------------------|


|------------------------|

|---x-x-x-x--------------|
|---x-x-x-x--------------|
|---x-x-x-x---....-------|
|-------------------------|
|-------------------------|
|-------------------------|
|--9----------------------| 4x
|--9--99999--9-7-9-7------|
|--7--77777--7-5-7-5------|
[B] Every time I see my baby [E]home,
[E] I wanna kiss a little better so I get [B]stoned
[B] Gonna spread her pretty legs so I can [E]see,
[E] Sweet lip honey be the death of[B] me
[A] And I will discover you'll be my midnight lover,
Oh babe, bring it on home to [B]me.
[B] Sometimes when I'm feeling [E]low,
[E] I go looking for a lover where the bad girls[B] go
[B] Sorry little girl, If you can't [E]stay,
[E]Your red light mama gonna show the[B] way
[A] And then a certain madness,
Will 'crease my heart with sadness
Oh babe, bring it on home to[B] me

[B]  [D]  [E]  Take me with you I will give you anything a woman [B]needs,
[B]  [D]  [E]  Take me with you I will give you anything a woman [D]needs

|------------------------------------------------------------------|
|------------------------------------------------------------------|
|------------------------------------------------------------------|
|---------9/11-11-11-11---9---7------------7/9-9-9-9---7---6-------|    2x
|--9--9---7/-9--9--9--9---7---5-----9--9---5/7-7-7-7---5---4-------|
|--7--7-----------------------------7--7---------------------------|



I know love and what it means,
It's a skinny little girl in tight ass jeans
I love to hear'em moan and cry,
'Cos God made men to satisfy
And with the fire returning,
I feel the fever burning
Oh babe, bring it on home to me

Take me with you I will give you anything a woman needs,
Take me with you I will give you anything a woman needs
Oh, take me with you.

Every time I see my baby home,
I wanna kiss a little better so I get stoned
Gonna spread her pretty legs so I can see,
Sweet lip honey be the death of me
And I will discover you'll be my midnight lover,
Oh babe, bring it on home to me

Take me with you I will give you anything a woman needs,
Take me with you I will give you anything a woman needs
Take me with you.


|-----------------------------------------------------------------|
|-----------------------------------------------------------------|
|-----------------------------------------------------------------|
|---------9/11-11-11-11---9---7-----------7/9-9-9-9---7---6-------|    4x
|--9--9---7/-9--9--9--9--7---5-----9--9---5/7-7-7-7---5---4-------|
|--7--7----------------------------7--7---------------------------|



outro:
|-----------------------------------|
|-----------------------------------|
|-----------------------------------|
|-------9-------------7--9----------|
|--9-9--8---6x-----9--5--7----------|
|--7-7-------------7----------------|


Important: The song above is NOT stored on the Chordie server. The original song is hosted at www.guitaretab.com. Chordie works as a search engine and provides on-the-fly formatting. Chordie does not index songs against artists'/composers' will. To remove this song please click here.

Text color:
Chord color:
Chord grids: 
Font size:    
Page size: 

A B D E
variations - click chord images

Login - add to songbook

Transpose chords

Tuning

Rating click stars to rate

Layout
Accuracy

SHARE PAGE  




You need to log in to post comments