Cut My Hair

Who

 G11357533EbC365343
 C                  x               Bb (G)        6x3366
Gm7 353363 or 3x3333
Am7 575585 or 5x5555
E7 x7675x

(Intro)
 Fmaj7G7Em/GAm/G
|---------7-8-10-8-7-8-7-----------------------------|
|-8----------------------10-8------5-6-8-------------|
|----------------------------------------5-7-9-9-----|
|----------------------------------------------------|
|----------------------------------------------------|
|----------------------------------------------------|


 G11GC
|------------------------------------|
|-----------8-1088-----8-------------|
|-7----------------9-----------------|
|------------------------------------|
|------------------------------------|
|------------------------------------|


 Fmaj7G7Em/GAm/G
 Why should I care if I ...             

 G11GC
I've got to move with the ...             

I know I should fight but my old ...

 BbCBbCBbFBbC
 Zoot suit, white jacket ...                          

 BbCBbCBbFBbG
 I'm out on the street ....                      

 FGFGFFCFG7
I'm dressed right for a beach ...                        

 FEbBbFmaj7
Why that un-certain feeling is ...               
|--------17-17-15---15-15---13-------13------13-15----|
|----------------18------------16---------16----------|


 Fmaj7G7Em/GAm/G
|----------19-20------------19-20----|
|---------------20---------------20--|
|------------------------------------|
|------------------------------------|
|------------------------------------|
|------------------------------------|


 G11GC
|---------------------|-------------------|
|-18-17-17---15--17---|-13--8--5---1--0---|
|---------------------|-------------------|
|---------------------|-------------------|
|---------------------|-------------------|
|---------------------|-------------------|


The kids at school have parents that ...

(chorus)

 Fmaj7G7Em/GAm/G
|-------19-20----------15/13-12-13-|
|------------20--------------------|
|----------------------------------|
|----------------------------------|
|----------------------------------|
|----------------------------------|


 G11GC
|-13-15---------12/13---------------|
|-------13/15----------15/17-15-13--|
|-----------------------------------|
|-----------------------------------|
|-----------------------------------|
|-----------------------------------|


 CG
 Why do I have to ... 
 Gm7F
Just to earn the respect of .. 
 GGsusGG7
 We have the same old ..                     

 DA
 Why do I have to ...

 Am7G
Of kids that hardly ...     

 AD/AA
I have to work myself to ...                

 Fmaj7/GG7
 I'm coming ....

 Em/GAm/G
Got home on the very first ...         

 G11E7Am
My dad just left for work....         

 Fmaj7/GG7Em/GAm/G
 It's all a game, 'cos ....                 

 G11E7Am
My fried egg makes me sick first thing .....   


A Am Am7 Bb C D E7 Eb F Fmaj7 Fmaj7/G G G11 G7 Gm7 Gsus
variations - click chord images
Transpose chords:
Tuning:
Cool service:
View: Size:
A  A  A
Rating:
Layout:
  • Currently 2.4/5 Stars.
  • 1
  • 2
  • 3
  • 4
  • 5
 
Accuracy:
  • Currently 2.3/5 Stars.
  • 1
  • 2
  • 3
  • 4
  • 5
 
click stars to rate
Chordie recommends:
Learn how to play guitar at JamPlay.com
Songbook:
Login to add this song to your songbook
Support the artist
Preview/buy this song
MSN Music
Why this non-profit ad?

 
login to add comments/video/corrections