Chordie logo


Eminence Front   Who



-------------------------------------------------------------------------------
			     Eminence Front - The Who
-------------------------------------------------------------------------------
Tabbed by: Jeff Kelley
Email: hobojoe4eva@verizon.net


Main Riff
e|---------------------------------------------------------------------------|
B|---------------------------------------------------------------------------|
G|----1-3---1-3-----1-3---1-3------------------------------------------------|
D|--3-----3-------3-----3----------------------------------------------------|
A|---------------------------------------------------------------------------|
E|---------------------------------------------------------------------------|

etc.  use some variations...

Intro Solo
e|---------------------------------------------------------------------------|
B|--4-6-6-4-4/6-6--4-------------------------------1------1-------1----------|
G|-------------------5----3---------3/b\-----3------3-1-----3-1-----3-1------|
D|---------------------3----6--5---------4-3----3-------3-------3-------3----|
A|---------------------------------------------------------------------------|
E|---------------------------------------------------------------------------|

e|------------------------------------------------------8--13-13--16-13------|
B|----4-3-1-----------------------------------------\11-----------------16-13|
G|----------3-1-------------------------1----3/b\1---------------------------|
D|--3-----------3-1------------------1-3--3----------------------------------|
A|------------------3-1------------3-----------------------------------------|
E|----------------------4/b--1/4/--------------------------------------------|

e|---------------------------13-13----------------13-------------------------|
B|------13-13--16-16-16-16---------------------13-----16-13------------------|
G|--15------------------------------15--15/b17--------------15-13----15-13---|
D|----------------------------------------------------------------15-------15|
A|---------------------------------------------------------------------------|
E|---------------------------------------------------------------------------|

e|---------------------------------------------------------------------------|
B|--------------13-15-13-15-13-15-13--13--16/b--16-16-----13-----------------|
G|----------13--13-15-13-15-13-15-13-------------------15----15--13----15--13|
D|----13-15---------------------------------------------------------15-------|
A|-15------------------------------------------------------------------------|
E|---------------------------------------------------------------------------|

e|---------------------------------------------------------------------------|
B|---------------------------------------------------------------------------|
G|--------------------12-13-12-----------------------------------------------|
D|-15-13----------13--------------13-----------------------------------------|
A|-------15\--15---------------15----15-13----13-----------------------------|
E|-----------------------------------------16----16--13-11-13----------------|

I wrote this really quick when I saw there wasn't one on here.  Sorry if it's a little 
but I think it'll sound okay with the song.


| /  slide up
| \  slide down
| \b bend up / down
| h  hammer-on
| p  pull-off
| ~  vibrato
| +  harmonic
| x  Mute note


Important: The song above is NOT stored on the Chordie server. The original song is hosted at www.guitaretab.com. Chordie works as a search engine and provides on-the-fly formatting. Chordie does not index songs against artists/composers will. To remove this song please click here.

This song is displayed as text-only. Transposing and tuning is only available for chordpro-songs.

Login - add to songbook

Rating click stars to rate

Layout
Accuracy

SHARE PAGE  




You need to log in to post comments