F#m244222244222
 D         xx0232    xx0232
B5(m) x244xx x244xx
G5 2x0033 355xxx
A x07655 xx 11 9 10 x
E/A x0645x x 11 99xx
D/A x0777x x x 12 11 10 x
Gmaj7 3x5432 xx5777

intro
g-tar 1 left channel
 EF#mE
  Oooh...                                                       ooh ooh 
|0-0-0-0-0-0-0-2|2/4-4-4-4-4-4-4/5|4-4-4-4-4-4-2-2h4p2|0-0-0-0-0---2-|4---|
|0-0-0-0-0-0-0-0|--0-0-0-0-0-0-0--|0-0-0-0-0-0-0-0----|0-0-0-0-0---2-|0---|
|---------------|-----------------|-------------------|--------------|----|
|---------------|-----------------|-------------------|--------------|----|
|---------------|-----------------|-------------------|--------------|----|
|---------------|-----------------|-------------------|--------------|----|

g-tar 2 right channel
|---------------|-----------------|-------------------|--------------|----|
|0-0-0-0-0-0-0-0|--0-0-0-0-0-0-0-0|0-0-0-0-0-0-0-0----|--------------|----|
|1-1-1-1-1-1-1-2|2/4-4-4-4-4-4-4-^|4-4-4-4-4-4-4-2h4p2|1---1-1-1-1-2-|1---|
|---------------|-----------------|-------------------|------------4-|2---|
|---------------|-----------------|-------------------|------------4-|2---|
|---------------|-----------------|-------------------|--------------|----|


verse
 EEE
It may be warm, but the snow is going to
         |0----------|------------------|
         |0----------|------------------|
         |1---------1|1h2----1--------1-|
         |2-----4----|----------4-------|
         |2----------|------------------|
         |0----------|------------------|


 F#mF#mDDsus4D
 fall enough to cover us all                 We've got to be
|2-----|----------------|2-----------------|-----------------|
|2-----|----------------|3-------------7h8p|7----------------|
|2----2|2h4--2--1-----2-|2-2-2-2-2-2-------|--9-7------------|
|4-----|----------------|0-0-0-0-0-0-0-----|------9-7--------|
|4-----|----------------|------------------|----------9-7-5\-|
|2-----|----------------|------------------|-----------------|


 B5mG5
 strong men         and follow a path again     We've got to have
now now now now now

chorus
 AAE/AD/AD/AAAAAE/AD/AD/AAA
 Faith in something bigger,         Faith in something bigger, 
g-tar 1
|------------------|-------0-0-0---|------------------|-------0-0-0---|
|5-----5--5---7----|7---5--5/5/5---|5-----5--5---7----|7---5--5/5/5---|
|6-----6--4---7----|7---6--6/6/6---|6-----6--4---7----|7---6--6/6/6---|
|7-----7--6---7----|7---7--7/7/7---|7-----7--6---7----|7---7--7/7/7---|
|0-----0--0---0----|0---0--0/0/0---|0-----0--0---0----|0---0--0/0/0---|
|------------------|---------------|------------------|---------------|

g-tar 2
|------------------|-------9-/9-/9-|------------------|-------9-/9----|
|10----10-----10---|10--10-10/10/10|10----10-----10---|10--10-10/10---|
|9-----9--9---11---|11--9--9-/9-/9-|9-----9--9---11---|11--9--9-/9----|
|11----11-9---12---|12--11---------|11----11-9---12---|12--11-11/11---|
|0--0--0--11--0-0--|0-0-0-0--------|---------11-------|----------0-0--|
|------------------|---------------|------------------|---------------|


 AAE/AD/AD/AAE/AAE
 Faith in something big inside ourselves        It might be
|------------------|-------------|0---------|--------------|
|5-----5--5---7----|7---5-5----2-|0---------|--------------|
|6-----6--4---7----|7---6-4----2-|1---------|--------------|
|7-----7--6---7----|7---7-6----2-|2---------|--------------|
|0-----0--0---0----|0---0-0----0-|2---------|--------------|
|------------------|-------------|0---------|--------------|

(gtr 2)
|------------------|-------------|0---------|--------------|
|10----10-----10---|10-10-9----5\|0---------|--------------|
|9-----9--9---11---|11--9-9----6\|1---------|--------------|
|11----11-9---12---|12-11-9----7\|2---------|--------------|
|---------11-------|-------------|2---------|--------------|
|------------------|-------------|0---------|--------------|


It might be cold but the heat of our love will melt
The snow we never felt
Were young and hardy again
We can bow to weaker men
Weve got to have
Faith in something bigger
Faith in something bigger
Faith in something big inside ourselves

bridge
 E
g-tar 2
|0------------------------|
|0------------------------|
|1------------------------|
|2-----7-7h9-7-6-7-6-7-9--|
|2------------------------|
|0------------------------|


Gmaj7 Gmaj7 Gmaj7 Gmaj7 D Dsus4 |Dsus2 D :||
The more we learn, the less we believe to be true

 Gmaj7Gmaj7Gmaj7Gmaj7AAsus4AAsus4
    The more we prove,  the more remains to be proved        

solo
 EEF#mF#m
g-tar 2                           
----|----------|---------|------|----------|
----|----------|---------|------|----------|
----|----------|---------|------|----------|
----|6-x6-6---6|6/7-6-4-6|7----7|7/9-7-6-7-|
----|----7-----|---------|------|----------|
--7\|----------|---------|------|----------|


 DB5mG5
            We've got to be strong men      and follow a path again
now now now now now
|------|-------------------|----------|-----------------|------3-3-3-|
|------|-------------------|----------|-----------------|------3-3-3-|
|------|-------------------|----------|-----------------|------0-0-0-|
|7----7|7/9-7------6-----7-|7/9-------|9p7--------------|------------|
|------|-------------------|----------|---9p7-----------|------------|
|------|-------------------|----------|------9p7-7-6-5-4|3-----------|


Weve got to have
now now now

Faith in something bigger
Faith in something bigger
Faith in something big inside ourselves

outro
 B5m
Inside ourselves

B7 | :
---2p0------0|--2p0------0--|
------4-5-2--|4----4-5-2----|
.------------|--------------|
.------------|--------------|
-------------|--------------|
-------------|--------------|				



A Asus4 B5 D Dsus4 E F#m G5 Gmaj7
variations - click chord images
Transpose chords:
Tuning:
Cool service:
View: Size:
A  A  A
Rating:
Layout:
  • Currently 1.3/5 Stars.
  • 1
  • 2
  • 3
  • 4
  • 5
 
Accuracy:
  • Currently 1.5/5 Stars.
  • 1
  • 2
  • 3
  • 4
  • 5
 
click stars to rate
Chordie recommends:
Check out JamPlay.com for online video guitar lessons
Songbook:
Login to add this song to your songbook
Support the artist
Preview/buy this song
MSN Music
Why this non-profit ad?

 
login to add comments/video/corrections