Chordie logo


I Cant Explain   Who



I Can't Explain
The Who
Tuning: Standard

Main Riff/Intro/Verse:
|----------------------------------------------------|
|----------------------------------------------------|
|-9--7-7--2--9-9--9--7-7--2--9-9---------------------|
|-9--7-7--2--9-9--9--7-7--2--9-9---------------------|
|-7--5-5--0--7-7--7--5-5--0--7-7---------------------|
|----------------------------------------------------|

Prechorus:
|----------------------------------------------------|
|----------------------------------------------------|
|-9--7-7--2--9-9--9--7-7--2--9-9---------------------|
|-9--7-7--2--9-9--9--7-7--2--9-9---------------------|
|-7--5-5--0--7-7--7--5-5--0--7-7---------------------|
|----------------------------------------------------|

|--------------------------------------------------|
|--------------------------------------------------|
|-9--7-7--2--9-9--9--7--2--------------------------|
|-9--7-7--2--9-9--9--7--2--------------------------|
|-7--5-5--0--7-7--7--5--0--------------------------|
|--------------------------------------------------|

Chorus:
|----------------------------------------------------|
|----------------------------------------------------|
|-9-9-9--5-7-7-7--6-6-6-6-4-2--7-9-9-7-9-------------|
|-9-9-9--5-7-7-7--6-6-6-6-4-2--7-9-9-7-9-------------|
|-7-7-7--3-5-5-5--4-4-4-4-2-0--5-7-7-5-7-------------|
|----------------------------------------------------|

|----------------------------------------------------|
|----------------------------------------------------|
|-9--7-7--2--9-9--9--7-7--2--9-9---------------------|
|-9--7-7--2--9-9--9--7-7--2--9-9---------------------|
|-7--5-5--0--7-7--7--5-5--0--7-7---------------------|
|----------------------------------------------------|

1st solo:
|-----4-2-------------------------------------------------------|
|-----0---------------------------------------------------------|
|2-4----1^------------------------------------------------------|
|---------------------0--------------------0--------------------|
|-----------5h7--7p5-2-----5-5h7-7p5--7p5-----0-0---------------|
|-----------------------------------------7-7--3--3^-0-3^--0\/--|
                                               
2nd solo:
|-----16-14~----------------------------------------------------|
|--------15---7h9-7^--------------------------------------------|
|14-/16--------------9-7h9-7h9-7h9-7h9-7-7~--------------0-2-5--|
|---------------------------------------9---9-7-5-7---0-2-------|
|-----------0---------------------------------------------------|
|--------------------------------------------------12\----------|

|------------|------------|-------------|-------------|
|---------3--|---3p2--5---|----5-----5--|-------------|
|--1------2--|-2----2-----|---4-----4---|-------------|
|--2------0--|----------6-|-------------|-------------|
|--2---5-----|0-----------|-4-----5-----|7-7-5-5-5----|
|0-0---------|-------0----|-------------|----------0--|


Important: The song above is NOT stored on the Chordie server. The original song is hosted at www.guitaretab.com. Chordie works as a search engine and provides on-the-fly formatting. Chordie does not index songs against artists/composers will. To remove this song please click here.

This song is displayed as text-only. Transposing and tuning is only available for chordpro-songs.

Login - add to songbook

Rating click stars to rate

Layout
Accuracy

SHARE PAGE  




You need to log in to post comments