I Cant Reach You

Who

 4/4/2/4
  | C        G/B     |Am7       G6    | Fadd9    C/E      | |  G/D     |
 |-3----------------|----------------|-(3)------(3)------| |---3------|
 |-1---------3------|-1--------0-----|--1--------1-------| |---0------|
 |-0------%--0-----%|-0-----%--0----%|--2-----%--0------%| |---0------|
 |-2---------0------|-2--------0-----|--3--------2-------| |---0------|
 |-3---------2------|-0--------------|-------------------| |----------|
 |------------------|----------3-----|-------------------| |----------|

 bass
 |            |                |                   | |          |
 |------------------|----------------|-------------------| |----------|
 |-10-----10-9-----9|-7-----7--5----5|--3-----3--2------2| |---0------|
 |------------------|----------------|-------------------| |----------|
 |------------------|----------------|-------------------| |------3---|

 second guitar (use tbis if no piano
 |                 | |          |
 |-8---------7------|-5--------3-----|--3--------3-------| |---3--3---|
 |-8---------8------|-5--------5-----|--1--------1-------| |---0--0---|
 |-9----%----7---%--|-5---%----4--%--|--2----%---0---%---| |---0--0---|
 |-10--------9------|-5--------5-----|--3--------2-------| |---0--0---|
 |------------------|----------------|-------------------| |----------|
 |------------------|----------------|-------------------| |----------|

 piano arr for guitar
 |             |                   | |          |
 |12---12---10---10-|-8---8----7--7--|--5---5----3---3---| |-1--1-----|
 |--13---13---12--12|--10--10---8--8-|---6---6----5----5-| |--3-----0-|
 |12---12---12---10-|-9---9----9--9--|--5---5----4---4---| |-2--2-----|
 |------------------|----------------|-------------------| |----------|
 |------------------|----------------|-------------------| |----------|
 |------------------|----------------|-------------------| |----------|


4/4| C C C | G | C Csus4 | G |

 CCsus4
I'm a billion ages past you
 CCsus4
million years behind you too
 BbG
thousand miles up in the air
 BbGG6G7
trillion times I've seen you there

 CCsus4
 Your hair is golden, mine is grey
 CCsus4
 You walk on grass, it turns to hay
 BbG
 Your blood is blue and your eyes are red
 BbGG6G7
 My body strains, but the nerves are dead   

 Cborus 1
 CBb
I can't reach you, I've strained my eyes
 CBb
I can't reach you, I've split my sides
 CG/BAm7G6
I can't reach, tryin' to get on you
 Fadd9C/EGsus4F/DC
 See,  feel or hear  from you 

| C | G | C | G |

The distances grow greater now
You drink champagne and past me plough
You fly your plane right over my head
You're so alive and I'm nearly dead

 Cborus 2
 CBb
I can't reach you, with arms outstretched
 CBb
I can't reach you, I crane my neck
 CG/BAm7G6
I can't reach, tryin' to get on you
 Fadd9C/EGsus4F/DC
 See,  feel or hear  from you  

| C | G | C | G |

 Bridge
 AmGC/GG
 Once I caught a glimpse of your unguarded, untouched heart
 AmGC/GG
Our fingertips touched and then my mind tore us apart

 Repeat cborus 2

| C | G |

 5
|| D  G /|A     || A5 / / / | / / / / | / / / - |

 Cborus 3
 DC
I can't reach you, with arms outstreched
 DC
I can't reach you, I crane my neck
 DA/C#Bm7A6
I can't reach tryin' to get on  you
 Gadd9D/F#Asus4/EGD
 See,  feel or hear  from you