|---------------------------------3--3--3--3--3-------------------------------|

|-----------2----2-2-2---2-2-2----3--3--3--3--3----2----2-2-2---2-2-2---2-2-2-|
|-----------2----2-2-2---2-2-2----0--0--0--0--0----2----2-2-2---2-2-2---2-2-2-|
|-----------2----2-2-2---2-2-2----0--0--0--0--0----2----2-2-2---2-2-2---2-2-2-|
|------0----0----0-0-0---0-0-0----2--2--2--2--2----0----0-0-0---0-0-0---0-0-0-|
|-3--3------------------------------------------------------------------------|
|-----------------------------------------------------------------------------|
|------------------------------/2---------------------------------------------|
|---------------------------------4-2---2-2-----222---------------------------|
|-------------------------------------4-------4-------------------------------|
|------0--------------------------------------------4-------------------------|
|-3--3------------------------------------------------------------------------|

 GD
 Layin' on my back

 A
In the newly mown grass

|-------------------------------------|
|-------------------------------------|
|-----------2-2-----2-2-----2-2-----2-|
|-------2-4-------4-------4-------4---|
|-0-2-4-------------------------------|
|-------------------------------------|


 GD
 Rain is coming down

 A
But I know the clouds will pass

|------------|
|------------|
|------------|
|---2-0-0----|
|-4----------|
|------------|


 D
  You bring me tears

|-14\--------|
|-15\--------|
|------7-7---|
|------------|
|------------|
|------------|


 DA
 Say, the babes a-sleeping

|----9---7---5--0-|
|---------------1-|
|-/9---7---6----0-|
|---------------2-|
|---------------3-|
|-----------------|


 CG
   Lay down beside me

 GA
 Love ain't for keeping

|---------------------------------------------3-3--2-2---|
|------------------------------------------/5-5-5--3-3---|
|--------------------------2----2-----2----------------2-|
|------------------------2---4------4--------------------|
|-4r2--0-----0-0-----0h4---------------------------------|
|---------2----------------------------------------------|


 GD
 Black ash from the foundry

 A
Hangs like a hood

 GD
  But the air is perfumed

 A
By the burning firewood

 D
  The seeds are bursting

|-15-14-------|
|-------15----|
|----------14-|
|-------------|
|-------------|
|-------------|


 A
The spring is seeping

|--------------------------0--|
|----15-15----14\12--------1--|
|-12-------------------14--0--|
|-------------------14-----2--|
|--------------------------3--|
|-----------------------------|


 C
  Lay down my darlin'

 GA
 Love ain't for keeping

|-/9----7---5--------------------9----7---5-----------------0--|
|-/10---7---7--------------------10---7---5-----------------1--|
|-----0-----7-----------------------------------------------0--|
|--------------5-x-7-7--7---7----------------5---7-5--------2--|
|-------------------------0---0----------------------7-5-3--3--|
|--------------------------------------------------------------|


 CG
   Lay down beside me

 GA
 Love ain't for keeping

Guitar Solo:
|-/9----7---5--------------------9----7---5-----------------|
|-/10---7---7--------------------10---7---5-----------------|
|-----0-----7-----------------------------------------------|
|--------------5-x-7-7--7---7----------------5---5-5-5-5-5--|
|-------------------------0---0-----------------------------|
|-----------------------------------------------------------|
|--------12---------12---------12-------------------------------------------9b10---------------|
|-12b14------12b14------12b14------14r12--10------10-------10-10-----10-----------12-10----10--|
|---------------------------------------------11-------11---------11----11--------------11-----|
|----------------------------------------------------------------------------------------------|
|----------------------------------------------------------------------------------------------|
|----------------------------------------------------------------------------------------------|
|-----------------12---------12--------12---------------------------------------------------|
|----10----12b14------12b14------12b14----14r12-10-----10----7r5-3-----0--------------------|
|-11------------------------------------------------11---------------2-----2----------------|
|------------------------------------------------------------------4-----4-------0-2----0---|
|------------------------------------------------------------------------------4-----0------|
|-------------------------------------------------------------------------------------------|
|-2------------2------2--3--3--3-3-2---9----7---5-------|
|---3-------/3-----/3----5--5--5-5-----10---7---5-------|
|-----2--------------------------------9----7---6-------|
|-------0-----------------------------------------7-5\--|
|-----------------------------------------0---0---------|
|-------------------------------------------------------|


 CG
   Lay down beside me

 GA
 Love ain't for keeping

|-5-x-5---------------------------------------------------------0--|
|-5-x-5---------------x----------------------2------------------1--|
|---------------------x------------------------2---2-2---2-2----0--|
|----------------2----x-------------------2------------4-----4--2--|
|-------0---2b4-----4---4-4-0---0---0h2h4-----------------------3--|
|-----------------------------3------------------------------------|


 C
  Lay down my darlin'

 GA
 Love ain't for keeping

Outro:
|------------------------------------|
|------------------------------2-2---|
|-6r4p2-----------2------------2-2---|
|-------4-----2-----2-----2----2-2---|
|---------0-4---0-----0-4---0--0-0---|
|------------------------------------|				



A C D G
variations - click chord images
Transpose chords:
Tuning:
Cool service:
View: Size:
A  A  A
Rating:
Layout:
  • Currently 2/5 Stars.
  • 1
  • 2
  • 3
  • 4
  • 5
 
Accuracy:
  • Currently 2.1/5 Stars.
  • 1
  • 2
  • 3
  • 4
  • 5
 
click stars to rate
Chordie recommends:
Check out JamPlay.com for online video guitar lessons
Songbook:
Login to add this song to your songbook
Support the artist
Preview/buy this song
MSN Music
Why this non-profit ad?

 
login to add comments/video/corrections