""; ?> by Unknown - guitar chords, guitar tabs and lyrics - chordie
--------------------------------------------------------------------


--------------------------------------------------------------------


Tabbed by:PJVillanueva

I used to wake up in the morning
I used to feel so bad
I got so sick of having sleepless nights
I went and told my dad

He said, "Son now here's some little something"
And stuck them on my wall
And now my nights ain't quite so lonely
In fact I, I don't feel bad at all

Pictures of Lily made my life so wonderful
Pictures of Lily helped me sleep at night
Pitcures of Lily solved my childhood problems
Pictures of Lily helped me feel alright

Pictures of Lily
Lily, oh Lily
Lily, oh Lily
Pictures of Lily

And then one day things weren't quite so fine
I fell in love with Lily
I asked my dad where Lily I could find
He said, "Son, now don't be silly"

"She's been dead since 1929"
Oh, how I cried that night
If only I'd been born in Lily's time
It would have been alright

Pictures of Lily made my life so wonderful
Pictures of Lily helped me sleep at night

For me and Lily are together in my dreams
And I ask you, "Hey mister, have you ever seen"
"Pictures of Lily?"

This song was most probably speeded down so
you must tune your guitar a half step down
if you want it to match the recording.

x x x x X X X
 G5
e|------- ------- ------- -------|------- ------- ------- -------|
B|-------------------------------|-------------------------------|
G|-------------------------------|-------------------------------|
D|5---5---5---5---5---5---5---5--|5---5---5---5---5---5---5---5--|
A|5---5---5---5---5---5---5---5--|5---5---5---5---5---5---5---5--|
E|3---3---3---3---3---3---3---3--|3---3---3---3---3---3---3---3--|


 CEm+5AmG5
e|------- 0------ ------- 0------|------- 0------ ------- -------|
B|--------1---------------1------|--------1----------------------|
G|--------0---------------0------|--------2----------------------|
D|--------2---------------2------|2-------2-----------5---5---5--|
A|3-------3-------2-------2------|0-------0-----------5---5---5--|
E|3-------3-------0-------0------|--------------------3---3---3--|

I used to wake up in the morning

e|3------ ------- ------- -------|------- ------- ------- -------|
B|3------------------------------|-------------------------------|
G|4------------------------------|-------------------------------|
D|5------------------------------|5---5---5---5---5---3----------|
A|5-------------------3---3---3--|5---5---5---5---5---5---7---5--|
E|3-------------------0---1---2--|3---2---3---2---3---3---3---3--|

I used to feel so bad

 CEm+5AmG5
e|------- 0------ ------- 0------|------- 0------ ------- -------|
B|--------1-------1-------1------|--------1----------------------|
G|--------0---------------0------|--------2----------------------|
D|--------2---------------2------|2-------2-----------5---5---5--|
A|3-------3---------------2------|0-------0-----------5---5---5--|
E|3-------3---------------0------|--------------------3---3---3--|

I got so sick of having sleepless nights

x x x x

e|3------ ------- ------- -------|------- ------- ------- -------|
B|3------------------------------|-------------------------------|
G|4------------------------------|-------------------------------|
D|5------------------------------|5---5---5---5---5---5---5------|
A|5-------------------3---3---3--|5---5---5---5---5---5---5------|
E|3-------------------0---1---2--|3---3---3---3---3---3---3------|

I went and told my dad He said,

 AmGFEm
e|------- 0------ ------- 3------|------- 1------ 0------ -------|
B|--------1---------------3------|--------1-------0--------------|
G|--------2---------------4------|--------2-------0--------------|
D|2-------2---------------5------|--------3-------2-------2------|
A|0-------0-------5-------5------|3-------3---2---2-------2------|
E|----------------3-------3------|1-------1---0---0-------0------|

"Son now here's some little something"

 AmG
e|------- 0------ ------- -------|3------ ------- ----3-- -------|
B|--------1----------------------|3-------------------3----------|
G|--------2----------------------|4-------------------4----------|
D|2-------2----------------------|5-------------------5----------|
A|0-------0-----------3---3---3--|5-------------------5----------|
E|--------------------0---1---2--|3-------------------3----------|

And stuck them on my wall

 CEm+5AmG5G
e|------- 0------ ------- 0------|------- 0------ ------- ----3-3|
B|--------1---------------1------|--------1-------------------3-3|
G|--------0---------------0------|--------2-------------------4-4|
D|--------2---------------2------|2-------2-------5---5-------5-5|
A|3-------3---------------2------|0-------0-------5---5-------5-5|
E|3-------3---------------0------|----------------3---3-------3-3|

And now my nights lonely In fact I,
ain't quite so

 G5F5
e|3------ ------- ------- -------|------- ------- ------- -------|
B|3------------------------------|-------------------------------|
G|4------------------------------|-------------------------------|
D|5------------------------------|5---5---5---5---5---5---5---3--|
A|5-------------------3---3---3--|5---5---5---5---5---5---5---3--|
E|3-------------------0---1---2--|3---3---3---3---3---3---3---1--|

I don't feel bad at all

 G5
e|------- ------- ------- -------|------- ------- ------- -------|
B|-------------------------------|-------------------------------|
G|-------------------------------|-------------------------------|
D|5---5---5---5---5---5---5---5--|5---5---5---5---5---5----------|
A|5---5---5---5---5---5---5---5--|5---5---5---5---5---5----------|
E|3---3---3---3---3---3---3---3--|3---3---3---3---3---3----------|

I don't feel bad at all

 CEmAmG
e|8------ ------- 7------ 7------|5------ ------- 3------ -------|
B|8---------------8-------8------|5---------------3--------------|
G|9---------------9-------9------|5---------------4--------------|
D10---------------9-------9------|7---------------5--------------|
A10---------------7-------7---7--|7-----------5---5-----------3--|
E|8---------------------------5--|5-----------3---3-----------1--|

Pictures of Lily made my life so won..

 FEm+5DG
e|1------ ------- 0------ 0------|----2-- ------- 3------ -------|
B|1---------------1-------1------|----3-----------3--------------|
G|2---------------0-------0---2--|----2-----------0--------------|
D|3---------------2-------2---0--|----------------0--------------|
A|3---------------2-------2------|----------------2--------------|
E|1---------------0-------0------|----------------3--------------|

....derful

 CEmAmG
e|8------ ------- 7------ 7------|5------ ------- 3------ -------|
B|8---------------8-------8------|5---------------3--------------|
G|9---------------9-------9------|5---------------4--------------|
D10---------------9-------9------|7---------------5--------------|
A10---------------7-------7---7--|7-----------5---5-----------3--|
E|8---------------------------5--|5-----------3---3-----------1--|

Pictures of Lily help me sleep at night

 FEm+5DE5
e|1------ ------- 0------ 0------|2------ 2------ ------- -------|
B|1---------------1-------1------|3-------3----------------------|
G|2---------------0-------0---2--|2-------2----------------------|
D|3-----------2---2-------2---0--|0-------0-------2---2---2---2--|
A|3-----------2---2-------2------|----------------2---2---2---2--|
E|1-----------0---0-------0------|----------------0---0---0---0--|


E Dsus2 E5...
e|------- -------|------- ------- ------- -------|
B|---------------|-------------------------------|
G|------------000|1------------------------------|
D|2-----------000|2-----------0---2---000-2---222|
A|2-----------000|2-----------0---2---000-2---222|
E|0---3B4-----000|0------/12\-0---0---000-0---000|


 ADbF#mE
e|5------ ------- 4------ 4------|2------ ------- 0------ -------|
B|5---------------5-------5------|2---------------0--------------|
G|6---------------6-------6------|2---------------1--------------|
D|7---------------6-------6------|4---------------2--------------|
A|7---------------4-------4---4--|4-----------2---2--------------|
E|5---------------------------2--|2-----------0---0--------------|

Pitcures of Lily solved my childhood

 DDbmB5E5
e|2------ ------- 4------ -------|------- ------- ------- -------|
B|3---------------5--------------|-------------------------------|
G|2---------------6--------------|4------------------------------|
D|0---------------6--------------|4-----------2-2-2---2---2------|
A|----------------4--------------|2-----------2-2-2---2---2------|
E|-------------------------------|------------0-0-0---0---0------|

problems

 ADbF#mE
e|5------ ------- 4------ 4------|2------ ------- 0------ -------|
B|5---------------5-------5------|2---------------0--------------|
G|6---------------6-------6------|2---------------1--------------|
D|7---------------6-------6------|4---------------2--------------|
A|7---------------4-------4---4--|4-----------2---2--------------|
E|5---------------------------2--|2-----------0---0--------------|

Pictures of Lily helped me feel alright

 D5E
e|------- ------- ------- -------|------- ------- ------- -------|
B|-------------------------------|9------------------------------|
G|7---7---7---7---7---7---7---7--|9------------------------------|
D|7---7---7---7---7---7---7---7--|9------------------------------|
A|5---5---5---5---5---5---5---5--|7------------------------------|
E|-------------------------------|0-------------------3B4R3B4----|


 E5D5E5
e|------- ------- ------- -------|------- ------- ------- -------|
B|9------------------------------|-------------------------------|
G|9------------------------------|9---9---9---7-------9----------|
D|9------------------------------|9---9---9---7-------9----------|
A|7------------------------------|7---7---7---5-------7----------|
E|0------------------------------|0---0---0---0-------0----------|


x x X X x X X
 E5D5E5
e|------- ------- ------- -------|------- ------- ------- -------|
B|-------------------------------|-------------------------------|
G|-------------------------------|-------------------------------|
D|-------------------------------|7---7---7---5-------7----------|
A|-------------------------------|7---7---7---5-------7----------|
E|-------------------------------|0---0---0---0-------0----------|

Pictures of Lily

 A5G5A5
e|------- ------- ------- -------|------- ------- ------- -------|
B|-------------------------------|-------------------------------|
G|-------------------------------|-------------------------------|
D|-------------------------------|7---7---7---5-------7----------|
A|-------------------------------|7---7---7---5-------7----------|
E|-------------------------------|5---5---5---3-------5----------|

Lily, oh Lily

 A5G5A5
e|------- ------- ------- -------|------- ------- ------- -------|
B|-------------------------------|-------------------------------|
G|-------------------------------|-------------------------------|
D|-------------------------------|7---7---7---5-------7----------|
A|-------------------------------|7---7---7---5-------7----------|
E|-------------------------------|5---5---5---3-------5----------|

Lily, oh Lily

xx
e|------- ------- ------- -------|
B|-------------------------------|
G|-------------------------------|
D|-------------------------------|
A|-------------------------------|
E|-------------------------------|

Pictures of Lily

D5 C5 D5...
e|------- ------- ------- -------|------- ------- ------- -------|
B|-------------------------------|-------------------------------|
G|7---7---7---5-------7----------|7---7---7---5-------7----------|
D|7---7---7---5-------7----------|7---7---7---5-------7----------|
A|5---5---5---3-------5----------|5---5---5---3-------5----------|
E|-------------------------------|-------------------------------|


G5 F5 G5...
e|------- ------- ------- -------|------- ------- ------- -------|
B|-------------------------------|-------------------------------|
G|-------------------------------|-------------------------------|
D|5---5---5---3-------5----------|5---5---5---3-------5----------|
A|5---5---5---3-------5----------|5---5---5---3-------5----------|
E|3---3---3---1-------3----------|3---3---3---1-------3----------|  


 CEm+5AmG5
e|------- 0------ ------- 0------|------- 0------ ------- -------|
B|--------1---------------1------|--------1----------------------|
G|--------0---------------0------|--------2----------------------|
D|--------2---------------2------|2-------2-----------5---5---5--|
A|3-------3-------2-------2------|0-------0-----------5---5---5--|
E|3-------3-------0-------0------|--------------------3---3---3--|

And then one day things quite so fine
weren't

 GG5
e|3------ ------- ------- -------|------- ------- ------- -------|
B|3------------------------------|-------------------------------|
G|4------------------------------|-------------------------------|
D|5------------------------------|5---5---5---5---5---3----------|
A|5-------------------3---3---3--|5---5---5---5---5---5---7---5--|
E|3-------------------0---1---2--|3---2---3---2---3---3---3---3--|

I fell in love with Lily

 CEm+5AmG5G
e|------- 0------ ------- 0------|------- 0------ ------- ----3--|
B|--------1-------1-------1------|--------1-------------------3--|
G|--------0---------------0------|--------2-------------------4--|
D|--------2---------------2------|2-------2-----------5---5---5--|
A|3-------3---------------2------|0-------0-----------5---5---5--|
E|3-------3---------------0------|--------------------3---3---3--|

I asked my dad where Lily I could find He said,

 A5
e|3------ ------- ------- ----3-3|3------ ------- ------- -------|
B|3---------------------------3-3|3------------------------------|
G|4---------------------------4-4|4-----------------------2------|
D|5---------------------------5-5|5-----------------------2------|
A|5---------------------------5-5|5-----------------------0------|
E|3---------------------------3-3|3------------------------------|

"Son, now don't be silly"

 AmG5F5E5
e|------- 0------ ------- -------|------- ------- ------- -------|
B|1-------1----------------------|-------------------------------|
G|2-------2----------------------|-------------------------------|
D|2---------------5---5-------5--|3-------3---2-2-2-------2------|
A|0---------------5---5-------5--|3-------3---2-2-2-------2------|
E|----------------3---3-------3--|1-------1---0-0-0-------0------|

"She's been
dead since 1929"

 AmG
e|0------ 0------ ----0-- 0------|------- ----3-- ------- -------|
B|1-------1-----------1---1------|3-----------3------------------|
G|2-------2-----------2---2------|0---0--------------------------|
D|2-------2-----------2---2------|0------------------------------|
A|0-------0-----------0---0------|2------------------------------|
E|-------------------------------|3------------------------------|

Oh, how I cried that night

 CEm+5Am
e|------- ------- ----0-- -------|----0-- ------- ------- -------|
B|--------1-------------------1--|----1-------1------------------|
G|--------0-------0-----------0--|0-----------0------------------|
D|--------2-------2-----------2--|2-----------2------------------|
A|3-------3-------2--------------|0-------------------3---3---3--|
E|3-------3-------0--------------|--------------------0---1---2--|

If only I'd been born in Lily's time

 G
e|------- 3------ ------- -------|15----- ----15- ------- -------|
B|--------3----------------------|----15----------15-------------|
G|0-------0----------------------|-------------------------------|
D|0-------0----------------------|-------------------------------|
A|2------------------------------|-------------------------------|
E|3------------------------------|-------------------------------|

It would have been alright

e|15----- ------- 15----- -------|
B|15--------------15-------------|
G|-------------------------------|
D|-------------------------------|
A|-------------------------------|
E|-------------------------------|                               


 CEmAmG
e|8------ 8------ 7------ 7------|5------ 5------ 3------ 3------|
B|8-------8-------8-------8------|5-------5-------3-------3------|
G|9-------9-------9-------9------|5-------5-------4-------4------|
D10------10-------9-------9------|7-------7-------5-------5------|
A10------10-------7-------7---7--|7-------7-------5-------5---3--|
E|8-------8-------------------5--|5-------5-------3-------3---1--|

Pictures of Lily made my life so won..

 FEm+5DG
e|1------ 1------ 0------ 0------|2------ 2------ 3------ -------|
B|1-------1-------1-------1------|3-------3-------3--------------|
G|2-------2-------0-------0---2--|2-------2-------0--------------|
D|3-------3-------2-------2---0--|0-------0-------0--------------|
A|3-------3---2---2-------2------|----------------2--------------|
E|1-------1---0---0-------0------|----------------3--------------|

....derful

 CEmAmGF5
e|8------ 8------ 7------ 7------|5------ ------- 3------ -------|
B|8-------8-------8-------8------|5---------------3--------------|
G|9-------9-------9-------9------|5---------------4--------------|
D10------10-------9-------9------|7---------------5--------------|
A10------10-------7-------7---7--|7-----------5---5-----------3--|
E|8-------8-------------------5--|5-----------3---3-----------1--|

Pictures of Lily help me sleep at night

 FEm+5DE5
e|1------ ------- 0------ 0------|2---2-- 2------ ------- -------|
B|1---------------1-------1------|3---3---3----------------------|
G|2---------------0-------0------|2---2---2----------------------|
D|3-----------2---2-------2------|0---0---0-------2---2---2---2--|
A|3-----------2---2-------2------|----------------2---2---2---2--|
E|1-----------0---0-------0------|----------------0---0---0---0--|
e|------- -------|------- ------- ------- -------|
B|---------------|-------------------------------|
G|---------------|-------------------------------|
D|2---2---2---2--|2-----------2-------2----------|
A|2---2---2---2--|2-----------2-------2----------|
E|0---0---0---0--|3B4-----0-----------3B4--------|


 ADbmF#mE
e|5------ ------- 4------ -------|2------ ------- 0------ -------|
B|5---------------5--------------|2---------------0--------------|
G|6---------------6--------------|2---------------1--------------|
D|7---------------6--------------|4---------------2--------------|
A|7---------------4--------------|4-----------2---2--------------|
E|5------------------------------|2-----------0---0--------------|

For me and Lily are together in my dreams

 DDbmBmE5
e|2------ ------- 4------ -------|2------ 2------ ------- -------|
B|3---------------5--------------|3-------3----------------------|
G|2---------------6--------------|4-------4----------------------|
D|0-----------0---6--------------|4-------4---2---2-------2---2--|
A|------------0---4--------------|2-------2---2---2-------2---2--|
E|-------------------------------|------------0---0-------0---0--|


 ADbmF#mE
e|5------ ------- 4------ -------|2------ ------- 0------ -------|
B|5---------------5--------------|2---------------0--------------|
G|6---------------6--------------|2---------------1--------------|
D|7---------------6--------------|4---------------2--------------|
A|7---------------4-----------4--|4-----------2---2--------------|
E|5---------------------------2--|2-----------0---0--------------|

And I ask you, "Hey mister, have you ever seen"

 DE5Dsus2E5
e|2------ ------- ------- -------|------- ------- ------- -------|
B|3------------------------------|-------------------------------|
G|2------------------------------|9---9---9---7-------9-\--------|
D|0------------------------------|9---9---9---7-------9-\--------|
A|-------------------------------|7---7---7---5-------7-\--------|
E|-------------------------------|0---0---0---0-------0----------|

Pictures of Lily

B Bend
R Release
/ Slide up
\ Slide down
H Hammer-on
P Pull-off
~ Vibrato
+ Harmonic
x Mute note
. Play note like a dot in standard notation
^ Ties two notes together
(. Pause


A A5 Am B5 Bm C D D5 Db Dbm Dsus2 E E5 Em Em+5 F F#m F5 G G5
variations - click chord images
Transpose chords:
Tuning:
Cool service:
View: Size:
A  A  A
Rating:
Layout:
  • Currently 1.9/5 Stars.
  • 1
  • 2
  • 3
  • 4
  • 5
 
Accuracy:
  • Currently 2.1/5 Stars.
  • 1
  • 2
  • 3
  • 4
  • 5
 
click stars to rate
Chordie recommends:
Check out JamPlay.com for online video guitar lessons
Songbook:
Login to add this song to your songbook
Support the artist
Preview/buy this song
MSN Music
Why this non-profit ad?

 
login to add comments/video/corrections