SUNRISE

Who

 GGmaj7Gmin7G6
------  ------  ------  ------
------  ------  ------  ------
------  ------  ------  ------
------  ------  ------  --4---
5---5-  5---5-  5-5555  5---5-
---6--  --66--  ------  ---6--
--7---  ------  ------  ------
------  ------  ------  ------

 Cmaj7Cmin7Cmin6
------  ------  ------
------  ------  ------
------  ------  ------
------  ------  ---4--
-5----  -5-5-5  -5---5
---6--  ----6-  ----6-
--7-7-  ------  ------
------  ------  ------

 B11B7b5
------  ------
----2-  ----2-
------  3-3---
4-44--  ---4--
------  ------
------  ------
------  ------

The guitar is tuned down one whole step.
Intro (eighth notes)
 FBbm/FDm/FF7sus4
D|--7-----7---------|--8-----8---------|--7-----7---------|--8-----8---------|
A|--3-----3---------|--4-----4---------|--5-----5---------|--6-----6---------|
F|--0-0-0-0-0-0-0-0-|--0-0-0-0-0-0-0-0-|--0-0-0-0-0-0-0-0-|--0-0-0-0-0-0-0-0-|
C|------------------|------------------|------------------|------------------|
G|------------------|------------------|------------------|------------------|
D|------------------|------------------|------------------|------------------|

Fmaj7 Bb(no 3rd)/F Fmaj7 F7sus4
D|--7-----7---------|--8-----8---------|--7-----7---------|--8-----8---------|
A|--7-----7---------|--8-----8---------|--7-----7---------|--6-----6---------|
F|--0-0-0-0-0-0-0-0-|--0-0-0-0-0-0-0-0-|--0-0-0-0-0-0-0-0-|--0-0-0-0-0-0-0-0-|
C|------------------|------------------|------------------|------------------|
G|------------------|------------------|------------------|------------------|
D|------------------|------------------|------------------|------------------|

 DmBbm/F
-|--7-----7---------|--8-----8---------|
-|--5-----5---------|--4-----4---------|
-|--0-0-0-0-0-0-0-0-|--0-0-0-0-0-0-0-0-|
-|------------------|------------------|
-|------------------|------------------|
-|------------------|------------------|

 FBbm/FC
 You take away the breath I was keeping for sunrise
 FBbm/FC
 You appear and the morning looks good in my eyes
 Bb/CC
And then again I'll turn down love
 Bb/CC
 Having seen you again
 Bb/CC
 Once more you'll disappear
 Bb/CC
 My morning put to shame
 GGmaj7Gmin7Cmaj7Cmin7Cmin6
 You take away the breath I was keeping for sunrise  
 GGmaj7Gmin7Cmaj7Cmin7Cmin6
 You appear and the morning looks good in my eyes  
 Gmaj7G6B11B7b5Emaj7B11C#11C#7b5
And then again I'll turn down love having seen you again  
 F#maj7C#11C#7b5D11D7b5
Once more you'll disappear   my    morning put to shame
Interlude (triplets)
-|------------0-----------0-|------------0-----------0-|------------0-----------

0-|
-|------5---5-------5---5---|------5---5-------5---5---|------4---4-------4---4-

--|
-|----7---7-------7---7-----|----7---7-------7---7-----|----6---6-------6---6---

--|
-|--7-----------7-----------|--6-----------6-----------|--6-----------6---------

--|
-|--------------------------|--------------------------|------------------------

--|
-|--------------------------|--------------------------|------------------------

--|
-|------------0-----------0-|------------0-----------0-|------------0-----------

0-|
-|------5---5-------5---5---|------4---4-------4---4---|------4---4-------4---4-

--|
-|----7---7-------7---7-----|----6---6-------6---6-----|----6---6-------6---6---

--|
-|--6-----------6-----------|--6-----------6-----------|--5-----------5---------

--|
-|--------------------------|--------------------------|------------------------

--|
-|--------------------------|--------------------------|------------------------

--|
-|------------0-----------0-|------------0-----------0-|
-|------8---8-------8---8---|------7---7-------7---7---|
-|----5---5-------5---5-----|----5---5-------5---5-----|
-|--0-----------0-----------|--0-----------0-----------|
-|--------------------------|--------------------------|
-|--------------------------|--------------------------|

 FBbmin/FC
 Sometimes I feel that this will go on my life through
 FBbmin/FC
 Each day I spend is an echoing vision of you
 Bb/CC
 And then again I'll turn down love
 Bb/CC
 Remembering your smile
 Bb/CC
 My every day is spent
 Bb/CC
 thinking of you all the while
 Bb/CC
Times I've let myself down
 Bb/CC
My head's spinning round
 FC11C7b5Fmaj7
My eyes see on  ly   you
 E11E7b5
The chances I've lost
 Amin7Amin6C11C9
Opportunities tossed away and into the blue
 FBbm/FC
 You take away the breath I was keeping for sunrise
 FBbm/FC
 You appear and the morning looks drab in my eyes
 Bb/CC
And then again I'll turn down love
 Bb/CC
 Having seen you again
 Bb/CC
 And then again you'll disappear
 Bb/CC
 My morning put to shame


Amin7 B11 B7b5 Bb/C Bbm/F C C#11 C#7b5 C11 C7b5 C9 Cmaj7 Cmin7 D11 D7b5 Dm Dm/F E11 E7b5 Emaj7 F F#maj7 F7sus4 Fmaj7 G G6 Gmaj7 Gmin7
variations - click chord images
Transpose chords:
Tuning:
Cool service:
View: Size:
A  A  A
Rating:
Layout:
  • Currently 2.6/5 Stars.
  • 1
  • 2
  • 3
  • 4
  • 5
 
Accuracy:
  • Currently 2.7/5 Stars.
  • 1
  • 2
  • 3
  • 4
  • 5
 
click stars to rate
Chordie recommends:
Check out these online guitar lessons
Songbook:
Login to add this song to your songbook
Support the artist
Preview/buy this song
MSN Music
Why this non-profit ad?

 
login to add comments/video/corrections