eToCache5 = ""; ?> Were Not Gonna Take It by Who - guitar chords, guitar tabs and lyrics - chordie

Were Not Gonna Take It

Who

-----------------------------------------------------------------------------

-----------------------------------------------------------------------------

 GG/C
e|---------3---------3-----|
B|---------3---------1-----|
G|---------0---------0-----| play 4x
D|---------0---------0-----|
A|---------2---------2-----|
E|-3-3-3-3-3-3-3-3-3-3-----|

 FEmEbG
e|-1-1-1-1-1-1-1-1-0-0-0-0-0-0-0-0-----------------3-3-3-3-3-3-3-3---------|
B|-1-1-1-1-1-1-1-1-0-0-0-0-0-0-0-0-8-8-8-8-8-8-8-8-3-3-3-3-3-3-3-3---------|
G|-2-2-2-2-2-2-2-2-0-0-0-0-0-0-0-0-8-8-8-8-8-8-8-8-0-0-0-0-0-0-0-0---------|
D|-3-3-3-3-3-3-3-3-2-2-2-2-2-2-2-2-8-8-8-8-8-8-8-8-0-0-0-0-0-0-0-0---------|
A|-3-3-3-3-3-3-3-3-2-2-2-2-2-2-2-2-6-6-6-6-6-6-6-6-2-2-2-2-2-2-2-2---------|
E|-1-1-1-1-1-1-1-1-0-0-0-0-0-0-0-0-----------------3-3-3-3-3-3-3-3---------|

 CGCGCGG5F5G5
e|-0-3--0-3--0-3------------------|
B|-1-3--1-3--1-3------------------|
G|-0-0--0-0--0-0------------------|
D|-2-0--2-0--2-0----5-5-5-3-5-----|
A|-3-2--3-2--3-2----5-5-5-3-5-----|
E|---3----3----3----3-3-3-1-3-----|


chorus
 GCFC
e|-3-3-3-3-3------------------------|
B|-3-3-3-3-3------------------------|
G|-0-0-0-0-0------------------------|
D|-0-0-0-0-0-----2-2-0-2/3-2--------|
A|-2-2-2-2-2-3-3--------------------|
E|-3-3-3-3-3------------------------|


 CGFCG
e|-0-0-0-0-3-3-3-3-1-1-0-0-3-3-3-3---|
B|-1-1-1-1-3-3-3-3-1-1-1-1-3-3-3-3---|
G|-0-0-0-0-0-0-0-0-2-2-0-0-0-0-0-0---|
D|-2-2-2-2-0-0-0-0-3-3-2-2-0-0-0-0---|
A|-3-3-3-3-2-2-2-2-3-3-3-3-2-2-2-2---|
E|---------3-3-3-3-1-1-----3-3-3-3---|


pt2 See Me Feel Me

e|-3-3-3-3-1-1-1-1-1-1-1-1-3-3-3-3----|
B|-3-3-3-3-1-1-1-1-1-1-1-1-3-3-3-3----|
G|-3-3-3-3-3-3-2-2-3-3-2-2-0-0-0-0----| play three times
D|-1-1-1-1-3-3-3-3-3-3-3-3-0-0-0-0----|
A|------------------------------------|
E|------------------------------------|


play this the fourth time
 Ebmaj7Fsus4FFsus4FE
e|-3-3-3-3-1-1-1-1-1-1-1-1-0-0-0-0-0-0-0-0-0-0-0-0-0-0-0-0-----------------|
B|-3-3-3-3-1-1-1-1-1-1-1-1-0-0-0-0-0-0-0-0-0-0-0-0-0-0-0-0-----------------|
G|-3-3-3-3-3-3-2-2-3-3-2-2-1-1-1-1-1-1-1-1-1-1-1-1-1-1-1-1-----------------|
D|-1-1-1-1-3-3-3-3-3-3-3-3-2-2-2-2-2-2-2-2-2-2-2-2-2-2-2-2-----------------|
A|-------------------------2-2-2-2-2-2-2-2-2-2-2-2-2-2-2-2-----------------|
E|-------------------------0-0-0-0-0-0-0-0-0-0-0-0-0-0-0-0-----------------|


Listening To You
 ABCABEABCGD
e|---------0-0-0-0---------0-0-0-0---------0-0-0-0-3-3-2-2---|
B|-2-2-4-4-1-1-1-1-2-2-4-4-0-0-0-0-2-2-4-4-1-1-1-1-3-3-3-3---|
G|-2-2-4-4-0-0-0-0-2-2-4-4-1-1-1-1-2-2-4-4-0-0-0-0-0-0-2-2---|
D|-2-2-4-4-2-2-2-2-2-2-4-4-2-2-2-2-2-2-4-4-2-2-2-2-0-0-0-0---|
A|-0-0-2-2-3-3-3-3-0-0-2-2-2-2-2-2-0-0-2-2-3-3-3-3-2-2-------|
E|-------------------------0-0-0-0-----------------3-3-------|

 Bsus4B
e|-------------------------------------------------------------------------|
B|-7-7-7-7-7-7-7-7-7-7-7-7-7-7-7-7-7-7-7-7-7-7-7-7-7-7-7-7-7-7-7-7---------|
G|-9-9-9-9-9-9-9-9-9-9-9-9-9-9-9-9-8-8-8-8-8-8-8-8-8-8-8-8-8-8-8-8---------|
D|-9-9-9-9-9-9-9-9-9-9-9-9-9-9-9-9-9-9-9-9-9-9-9-9-9-9-9-9-9-9-9-9---------|
A|-------------------------------------------------------------------------|
E|-7-7-7-7-7-7-7-7-7-7-7-7-7-7-7-7-7-7-7-7-7-7-7-7-7-7-7-7-7-7-7-7---------|

use your thumb on the 7 on the E string thats what Pete Townshend does

| / slide up
| \ slide down
| h hammer-on
| p pull-off
| ~ vibrato
| + harmonic
| x Mute note
=============================================================================

A B Bsus4 C D E Eb Ebmaj7 Em F F5 Fsus4 G G/C G5
variations - click chord images
Transpose chords:
Tuning:
Cool service:
View: Size:
A  A  A
Rating:
Layout:
  • Currently 2.3/5 Stars.
  • 1
  • 2
  • 3
  • 4
  • 5
 
Accuracy:
  • Currently 2.3/5 Stars.
  • 1
  • 2
  • 3
  • 4
  • 5
 
click stars to rate
Chordie recommends:
Learn to play songs at Jamplay.com with video guitar lessons
Songbook:
Login to add this song to your songbook
Support the artist
Preview/buy this song
MSN Music
Why this non-profit ad?

 
login to add comments/video/corrections