Guitar Tabs, Chords and Lyrics


Amazing Journey   Who



Amazing Journey by The Who
tuning is G,D,A,E

notes
 /  slide up
 \  slide down
 h  hammer-on
 p  pull-off
 ~  vibrato
 +  harmonic
 x  Mute note


|--5-----------------------5---------------------|
|----5---7-------------------5---7---------------|
|----------7---5----5--------------7---5---5-----|
|----------------5----5------------------5---5---|

|------------|
|------------|
|----7--5----|
|--5------5--|

|--5-----------------------5---------------------|
|----5---7-------------------5---7---------------|
|----------7---5----5--------------7---5---5-----|
|----------------5----5------------------5---5---|

|-------------------------------------|
|--5~----------------------5~---------|
|-----7~----------------------7~------|
|--------0/5-5-5--0/5-5-5--------5~---|

|--5-----------------------5-------------------5----------------------|
|----5---7-------------------5---7---------------5---7----------------|
|----------7---5-------------------7---5---5-----------7---5----5-----|
|----------------5-----------------------5---5---------------5----5---|

|--5-----------------------------------------------------------|
|----5---7-----------------------------------------------------|
|----------7---5----5---------8---8-7---7-6---6-5~-55555-5-5---|
|----------------5----5-----3----------------------------------|

|-----------------------------------------------3---5---7----|
|--5-5-555---------5-5-555----------5-5-555-------3---5---7--|
|----------5-5-555---------5-5-555----------5-5--------------|
|------------------------------------------------------------|

|--5----------------------------5----------------------5--------------------|
|----5---7------------------------5---7------------------5---7--------------|
|----------7---5----5-----5-------------7---5----5-------------7---5----5---|
|----------------5-----5----5-----------------5----5-----------------5----5-|

|-------------------------------------------------------------------|
|--5~----------------------5~---------------------------------------|
|-----7~----------------------7~---------------8---8-7---7-6---6-5--|
|--------0/5-5-5--0/5-5-5--------5~-55555555-5----------------------|

|-----------------------------------------------3---5---7----|
|--5-5-555---------5-5-555----------5-5-555-------3---5---7--|
|----------5-5-555---------5-5-555----------5-5--------------|
|------------------------------------------------------------|


|--5-------------------|
|----5--7--------------|
|---------7--5---5-----|


Important: The song above is NOT stored on the Chordie server. The original song is hosted at www.guitaretab.com. Chordie works as a search engine and provides on-the-fly formatting. Chordie does not index songs against artists'/composers' will. To remove this song please click here.

This song is displayed as text-only. Transposing and tuning is only available for chordpro-songs.

Login - add to songbook

Rating click stars to rate

Layout
Accuracy

SHARE PAGE  




You need to log in to post comments