Guitar Tabs, Chords and Lyrics


Naked Eye  Who

    [Dsus2]           [Cadd9]           [G6/B]      [G]     [Dsus2]       [C]                            
|-----0-----|----0-----|----0-----|-----0------|
|----3-3----|---3-3--3-|---3-3----|----3-3-3---|
|.--2---2-2-|--0----0--|--0---0---|---2---2----|
|.-0-----0--|----------|----------|-0----------|
|-----------|-3--------|-2----(0)-|------------|(3)
|-----------|----------|--------3-|------------|


Dsus2 Cadd9 G6/B Dsus2 *
|----0-----|------------|----0-----|----0--------|
|---3-3----|----3----3--|---3-3----|---3--3------|
|--2---2-2-|---0----0---|--2---2-2-|--2----2-2---|
|-0-----0--|--2---------|-0-----0--|-0--(0-3-0---|.
|----------|-3----2-(0)-|------(3)-|---(3)-------|
|----------|----------3-|----------|-------------|

* opt. sus4

[Dsus2]Take a little [Cadd9]dope and [G6/B]walk out in[G] the [Dsus2]air
The stars are all connected to the brain
Find me a woman and lay down on the ground
Her pleasure comes falling down like rain
Get myself a car, I feel power as I fly
Oh, now I'm really in control

[Dsus2]It all looks [Cadd9]fine  [G6/B]to the na[G]ked [Dsus2]eye
But it [Cadd9]don't really [G]happen that way at [F6/9]all       [Cadd9]
Don't happen that way at all.
||: C5/D5  D5 D5  C5 | G5 G5 G5\F5 :[3]|| C5/D5  D5 D5  C5 | G5    |

You sign your own name and I sign mine
They're both the same, but we still get separate rooms
You can cover up your guts, but when you cover up your nuts
You're admitting that there must be something wrong
Press any button, and milk and honey flows
The world begins behind your neighbor's wall

repeat chorus
||: C5/D5  D5 D5  C5 | G5 G5 G5\F5 :[3]|| C5/D5  D5 D5  C5 | G5  G5 G5 |

| Cadd9 G | F6/9 | Cadd9 | G | |

solo 3
||: F6/9 | Cadd9 | G | :||

||: C5/D5  D5 D5  C5 | G5 G5 G5\F5 :[3]|| C5/D5  D5 D5  C5 | G5    |

You hold the gun and I hold the wound
And we stand looking in each other's eyes
Both think we know what's right, both know we know what's wrong
We tell ourselves so many, many, many lies
We're not pawns in any game, (we're) not tools of bigger men
There's only one who can really move us all

repeat chorus

outro 11
| G (Gsus4) | G ||: F6/9 | Cadd9 | G | G :|| F6/9

Important: The song above is NOT stored on the Chordie server. The original song is hosted at www.guitaretab.com. Chordie works as a search engine and provides on-the-fly formatting. Chordie does not index songs against artists'/composers' will. To remove this song please click here.

Text color:
Chord color:
Chord grids: 
Font size:    
Page size: 

C Cadd9 Dsus2 F6/9 G G6/B
variations - click chord images

Login - add to songbook

Transpose chords

Tuning

Rating click stars to rate

Layout
Accuracy

SHARE PAGE  




You need to log in to post comments