Gemini Birthday Song

Why

E --------------------------------|

B ----1-------3-------1-------1---|
G ----0-------0-------0-------0---|
D --------------------------------|
A 3-------3-------3-------3-------|
E --------------------------------|
E ------------3-------------------|
B ----0-------0-------0-------0---|
G ----0---------------0-------0---|
D --------------------------------|
A --------------------------------|
E 3-------3-------3-------3-------|
E --------------------------------|
B ------------1-------3-----------|
G ----2-------2-------2-----------|
D ----3---------------------------|
A --------------------------------|
E 1-------1-------1---------------|
E 0-------------------------------|
B 1-----------1-------1------1----|
G ------------0-------0------0----|
D --------------------------------|
A 3-------3-------3-------3-------|
E --------------------------------|
E --------------------------------|
B ------------1-------3-----------|
G ----2-------2-------2-----------|
D ----3---------------------------|
A --------------------------------|
E 1-------1-------1---------------|
E 0-------------------------------|
B 1-----------1-------1------1----|
G ------------0-------0------0----|
D --------------------------------|
A 3-------3-------3-------3-------|
E --------------------------------|
E --------------------------------|
B ----0-------1-------0-------0---|
G ----0-------0-------0-------0---|
D --------------------------------|
A --------------------------------|
E 0-------0-------0-------0-------|
E --------------------------------|
B ----0-------1-------0-------0---|
G ----0-------0-------0-------0---|
D --------------------------------|
A --------------------------------|
E 3-------3-------3-------3-------|

 C
 It starts with you
 GF
on a mattress in your parents' old room,  
 C
clipping your toenails into the room
 F
like the room will fade    
 C
and you will move onto other rooms
 EmG
 and you will go to other places.

Verse 2 (Repeat verse chords above)
Then the wedding,
Then the woman passed out
in the driver's seat
at the order board at White Castle.
We woke her up and she went
'round to the pick up window
like she knew exactly where she was.

Verse 3 (Repeat verse chords above)
Then I wept
with my face in your night shirt,
trying hard as hell to say
"until death separates us,"
loosening the skin on your breastbone,
I painted your nails
and you sleep
while I write all this down.

Chorus 1

 C
 There was a moth caught in the soapdish laminated in lye

 Am
 Will you still remember me well
 CF
 If I don't get to two-o-o-five?
 EmG
my dead line Gemini


Am C Em F G
variations - click chord images
Transpose chords:
Tuning:
Cool service:
View: Size:
A  A  A
Rating:
Layout:
  • Currently 0/5 Stars.
  • 1
  • 2
  • 3
  • 4
  • 5
 
Accuracy:
  • Currently 0/5 Stars.
  • 1
  • 2
  • 3
  • 4
  • 5
 
click stars to rate
Chordie recommends:
Learn how to play guitar at JamPlay.com
Songbook:
Login to add this song to your songbook
Support the artist
Preview/buy this song
MSN Music
Why this non-profit ad?

 
login to add comments/video/corrections