Guitar Tabs, Chords and Lyrics


Smile   Wide Mouth Mason



Artist: Wide mouth Mason
Song  : Smile
Tab by: Devon Horsman

capo on 4th fret.
opening: with drive and swell/delay

e|------------------------------------|
b|---------------------------7-8------|
g|-7---5--575-575--7---------7--------|
d|------------------------------------|
a|------------------------------------|
D|------------------------------------|


	  verse: with drive (repeat once)
e|---------------------------------|
b|---------------------------------|
g|-5--7--------5--7----------------|
d|-5--7--------5--7------3-/5-5----|
a|-3--5--------3--5------3-/5-5----|
D|-----------------------3-/5-5----|


	   pre chorus: with drive
e|----------------------------------------|----------------|
b|-------3----------3---------------------|----------------|
g|---------2----------2----------4-5-4----|--------4-5-----|
d|----------------------------5--------5--|-----5----------|
a|---0----------0-----------5-------------|---5------------|
D|-0----------2-----------5---------------|-5--------------|

	   chrous: with drive (this is the only part i'm not sure about)
e|--------------------------------------|
b|-2-------2------2-------2------2------|
g|---2-------2------2-------2------2----|
d|-----2-------2------2-------2------0--|
a|--------------------------------------|
D|--------------------------------------|

 ---------------------------------------|
 ---0-------0-------0------0-------0----|
 -0-------0-------0------0-------0------|
 -----0-------0-------0------0-------2--|
 ---------------------------------------|
 ---------------------------------------|


	  solo: with drive and  brass slide.
e|-10-8/7-5/3-2-2-3-2----10-8/7-5/3----------------|
b|--------------------3-------------7-/8-8--8-7/3--|
g|-------------------------------------------------|
d|-------------------------------------------------|
a|-------------------------------------------------|
D|-------------------------------------------------|

 ---10-8/7-5/3-2-2-3-2----10-8/7-5/3--2-2/3--9---|
 ---------------------3--------------------------|
 ------------------------------------------------|
 ------------------------------------------------|
 ------------------------------------------------|
 ------------------------------------------------|


	   bridge: with drive  (this isn't exactly right either)
e|--8/7-5/3-3/5-5/3-3/5/3-2------2------9--8--7-7-8-7-5----------|
b|--------------------------3--3---5-------------------8-7-7-5-7-|
g|---------------------------------------------------------------|
d|---------------------------------------------------------------|
a|---------------------------------------------------------------|
D|---------------------------------------------------------------|

	  ending: with drive and swell/delay
e|-------------5-7-8-10--8-10-7-5-7h8p7---------|
b|-------5-7-8----------------------------------|
g|-----7--------------------------------7-------|
d|-0--------------------------------------------|
a|-0--------------------------------------------|


Important: The song above is NOT stored on the Chordie server. The original song is hosted at www.guitaretab.com. Chordie works as a search engine and provides on-the-fly formatting. Chordie does not index songs against artists/composers will. To remove this song please click here.

This song is displayed as text-only. Transposing and tuning is only available for chordpro-songs.

Login - add to songbook

Rating click stars to rate

Layout
Accuracy

SHARE PAGE  




You need to log in to post comments