Bears Gone Fishing

Widespread Panic

|----------------|----------------|
|--8-------------|--7-------------|
|--5-------------|--5-------------|
|--7-------------|--7-------------|
|--5-------------|--5-------------|
|----------------|----------------|
|--------------------|------------------------------|
|--6-------------6-6-|--6-5-5-5--11-11-11-10-10-10--|
|--5-------------5-5-|--5-5-5-5--10-10-10-10-10-10--|
|--7-------------7-7-|--7-7-7-7--12-12-12-12-12-12--|
|--5-----------------|------------------------------|
|--------------------|------------------------------|


Verse 1:
Bear gone fishin', mermaids missin'
Got to get to the bottom of this
Kissin' the wound from the captain's harpoon
Unexpected moment of bliss
Loss is closer, tip of exposure
It's sunny at the edge of the sea
Baby knows what she really wants
She get the most of make believe

Chorus:
 GBb
 Spy vs. Spy, baby's a freak show
 FA
 Line forms just to the right of your keyhole

Verse 2:
Follow and cruisin', ain't it amusin'
Hair hardly moves in the breeze
Baby gets restless, breaks out of fortress
Soon there'll be somethin' to see
Forces close her, glimpse of exposure
It's sunny at the edge of the sea
Baby knows what she really wants
She makes the most of make believe

Chorus:
 GBb
 Spy vs. Spy, baby's a freak show
 FA
 Lines form just to the right of your keyhole
 GBb
 Eyes from the paintings seem to follow
 FA
 Mirrors cap both ends of your telescope.

mumbled over verse chords:
Ah, shucks
Sweet
Petite

Bridge:
G (2 measures)
Spy vs. Spy
F (2 measures)
G (2 measures)
F (2 measures)
C (2 measures)
D (2 measures)
 E
Chorus:
 GBb
 Spy vs. Spy, baby's a freak show
 FA
 Lines form just to the right of your keyhole
 GBb
 Eyes from the paintings seem to follow
 FA
 Mirrors cap both ends of your telescope.


A Bb E F G
variations - click chord images
Transpose chords:
Tuning:
Cool service:
View: Size:
A  A  A
Rating:
Layout:
  • Currently 3/5 Stars.
  • 1
  • 2
  • 3
  • 4
  • 5
 
Accuracy:
  • Currently 2.8/5 Stars.
  • 1
  • 2
  • 3
  • 4
  • 5
 
click stars to rate
Chordie recommends:
Learn to play guitar with video-based, online guitar lessons at JamPlay.com
Songbook:
Login to add this song to your songbook
Support the artist
Preview/buy this song
MSN Music
Why this non-profit ad?

 
login to add comments/video/corrections