Chordie logo


Someone Elses Song   Wilco



Wilco - Someone Else's Song

Intro:

-----0-----0-------0-------------0-----0-----0-----------|
-----2-----2-------2-------------2-----2-----2-----------|
-----2-----2-------2-------------2-----2-----2-----------|
-----2-----2-------2-------------2-----2-----2-----------|
--0-------------0--------------0-----------0-------------|
---------0-------------0h2h4---------0----------0h2-(4)--|

----0-------------0----0-----0-----------------2-------2--|
----2-------------2----2-----2-----------------3-------3--|
----2-------------2----2-----2-----------------2-------2--|
----2--~4--2------2----2-----2--~4---2-------0------------|
--0-------------0----------0------------4-----------0-----|
---------------------0------------------------------------|

----2------------------0-----0-----0-------------0----0----|
----3------------------2-----2-----2-------------0----0----|
----2--~4--2-----------2-----2-----2---2--0------1----1----|
-0------------4-(2)----2-----2-----2---------4---2----2----|
---------------------0-----------0---------------2----2----|
---------------------------0---------------------0----0----|

----0-----0-----0-----0------0--------------2----2----2---2--|
----2-----2-----2-----2------2--------------3----3----3---3--|
----2-----2-----2-----2------2--------------2----2----2---2--|
----2-----2-----2-----2------2------------0---------0--------|
--0-----------0------------0-----0--2--4-------0---------0---|
--------0-----------0----------------------------------------|

--2-------------0-----0-----0----0------2-----2--------------0--|
--3-------------2-----2-----2----2------3-----3--------------2--|
--2--2h4--------2-----2-----2----2------2-----2--------------2--|
--0-------4-----2-----2-----2----2----0----------------------2--|
--------------0-----------0-----------------0--------------0----|
--------------------0----------0------------------0--2--4-------|

Singing Starts;  Follow similar chord progression, sans elaboration

A   D   A   E


Important: The song above is NOT stored on the Chordie server. The original song is hosted at www.guitaretab.com. Chordie works as a search engine and provides on-the-fly formatting. Chordie does not index songs against artists/composers will. To remove this song please click here.

This song is displayed as text-only. Transposing and tuning is only available for chordpro-songs.

Login - add to songbook

Rating click stars to rate

Layout
Accuracy

SHARE PAGE  




You need to log in to post comments