Chordie logo


Either Way   Wilco



------------------------------------------------------------------
	          EITHER WAY (SOLO) - Wilco
------------------------------------------------------------------

Tabbed by:REOFlashFire


1:42

e|-------0-----0------0-----0------------10\9----12---------------|
B|--1/2-----3------5-----8-----10~~~~----------------10~~~--------|
G|----------------------------------------------------------------|
D|----------------------------------------------------------------|
A|----------------------------------------------------------------|
E|----------------------------------------------------------------|

e|------------12-12-----14/15~~~~~---------------12-12-----14/15--|
B|--10/11/12---------12---------------10/11/12---------12---------|
G|----------------------------------------------------------------|
D|----------------------------------------------------------------|
A|----------------------------------------------------------------|
E|----------------------------------------------------------------|

e|--15-12-14-12---------------------------------------------------|
B|--------------15-12-10------------------------------------------|
G|-----------------------12-11-10---------------------------------|
D|--------------------------------12-11-10-11-12~~--11-12~~-------|
A|----------------------------------------------------------------|
E|----------------------------------------------------------------|

e|--------------------10---------------9----5--5/7----7-7-----9---|
B|-----------------12----14\12-10-----10----7--7/8----8-8-----10--|
G|--------11-12/14------------------------------------------------|
D|--11/12---------------------------------------------------------|
A|----------------------------------------------------------------|
E|----------------------------------------------------------------|

e|--10\-9/10-------10\-9/10------10-10-------12-------14\13/14----|
B|--12\11/12-------12\11/12------12-12-------14-------15\14/15----|
G|----------------------------------------------------------------|
D|----------------------------------------------------------------|
A|----------------------------------------------------------------|
E|----------------------------------------------------------------|

e|--15\14/15----17\-----10----------------------------------------|
B|--17\16/17----21\----(14)--13--11--10--11p10--------6-----------|
G|---------------------------------------------12--7h8--8p7-5-----|
D|----------------------------------------------------------------|
A|----------------------------------------------------------------|
E|----------------------------------------------------------------|

e|----------------------------------------------------------------|
B|----------------------------------------------------------------|
G|----------------------------------------------------------------|
D|--8--7--5--4~~~~~~~~~-------------------------------------------|
A|--------------(0)~~~~-------------------------------------------|
E|----------------------------------------------------------------|


| /  slide up
| \  slide down
| h  hammer-on
| p  pull-off
| ~  vibrato
| +  harmonic
| x  Mute note
===================================================================


Important: The song above is NOT stored on the Chordie server. The original song is hosted at www.guitaretab.com. Chordie works as a search engine and provides on-the-fly formatting. Chordie does not index songs against artists/composers will. To remove this song please click here.

This song is displayed as text-only. Transposing and tuning is only available for chordpro-songs.

Login - add to songbook

Rating click stars to rate

Layout
Accuracy

SHARE PAGE  




You need to log in to post comments