Theologians

Wilco

-------------------------------------------------------------------------------

-------------------------------------------------------------------------------

 BbAmGmC

 BbAm
Theologians  
 GmC
They don't know nothing   
 BbAm
About my soul       
 GmC
About my soul      

 BbAm
I'm an ocean    
 GmC
An abyss in motion     
 FD7
Slow motion  
 GmBbC
Slow motion      

 FD7
Inlitterati lumen fidei 
 GmBbC
God is with us everyday         
 FD7
That illiterate light 
 GmBbC
Is with us every night        

 BbAm
Theologians   
 GmC
That don't know nothing    
 BbAm
About my soul      
 GmC
Oh they don't know       

 FD7
They thin my heart with little things 
 GmBbC
And my life with change         
 FD7
Oh in so many ways  
 GmBbC
I find more missing every day        

Bb Am Gm C X2
Theologians

Solo:
e|---------------------------------------------------------------------------|
B|---------------------------------------------------------------------------|
G|---------------------------------------------------------------------------|
D|-------------5~----------5~-----------------7------------------------------|
A|-5h8~-5---5-8---8p5---5-8---5--5~--8p5--5-8-----5p3~-----------------------|
E|--------8-----------8---------8--------8-----------------------------------|
e|-------13p12-10---------13p12-10----------------13p12-10-------------------|
B|--10h13--------10~----10---------12~-/15---10h13--------10~----------------|
G|--------------------10-----------------------------------------------------|
D|---------------------------------------------------------------------------|
A|---------------------------------------------------------------------------|
E|---------------------------------------------------------------------------|


 DmDm/C
   I'm going away
 Dm/BDm/Bb
Where you will look for me 
 DmDm/CDm/BDm/Bb
   Where I'm going you cannot come    

 D5F5G5
   No one's ever gonna take my life from me
 D5F5
   I lay it down
 G5
A ghost is born
A ghost is born
A ghost is born

 BbAm
I'm an ocean  
 GmC
I'm all emotion  
 BbAm
I'm a cherry ghost   
 GmC
Cherry ghost  

 BbAm
Hey I'm a cherry ghost     
 GmC
A cherry ghost  

Bb Am Gm C X3

 Bb
===============================================================================
That's pretty much it. I didn't put in the little slidey parts cos they're
scattered everywhere and the tab would look messy. I didn't put the 2nd solo
in either, cos it's only about 6/7 notes, so it aint worth it.
===============================================================================


Am Bb C D5 D7 Dm Dm/B Dm/Bb Dm/C F F5 G5 Gm
variations - click chord images
Transpose chords:
Tuning:
Cool service:
View: Size:
A  A  A
Rating:
Layout:
  • Currently 3.6/5 Stars.
  • 1
  • 2
  • 3
  • 4
  • 5
 
Accuracy:
  • Currently 3/5 Stars.
  • 1
  • 2
  • 3
  • 4
  • 5
 
click stars to rate
Chordie recommends:
Get acoustic guitar lessons and electric guitar lessons at JamPlay.com
Songbook:
Login to add this song to your songbook
Support the artist
Preview/buy this song
MSN Music
Why this non-profit ad?

 
login to add comments/video/corrections