Radio Cure

Wilco

 E
e-----------------------------------------|
B----0---0---0---0---0---0---0---0---0----|
G----1---1---1---1---1---1---1---1---1----|
D----2---2---2---2---2---2---2---2---2----| and on for a while
A-----------------------------------------|
D--2---2---2---2---2---2---2---2---2------|


This the general idea for the strumming that Jeff does for the song. I use my thumb
to hit the bass note continually, and my ring and middle fingers to do quick strums of
some of the middle strings (it's not precise). I'll indicate with an "x" when the bass
note is slapped with the thumb (at leaat for the first verse, because it's an essenstial
part of the way the song is played, and gives it that eerie sound it has.

 D
e-----------------------------------------|
B----3---3---3---3---3---3---3---3---3----|
G----2---2---2---2---2---2---2---2---2----|
D----0---0---0---0---0---0---0---0---0----|
A-----------------------------------------|
D--0---0---0---0---0---0---0---0---0------|


Verse 1:
 D
 cheer up
A x x E
honey I hope you can
x x x x D x x A
there is something wrong with me
x E x x x x x D
my mind is filled with silvery stuff
A x x x D
honey kisses clouds of fluff
 E
shoulders shrugging off

 D
Verse 2: (tabs for shly played electric guitar)
 D
 cheer up

e----------------------------------------------|
B--------------------------9-10-9-----10-9-10--|
G----------------------------------------------|
D-----------------10-/11----------11-----------|

 A
honey I hope you can

e-------------------------------------------------------------------|
B--9---7-------------7-------------10--7--------9/10----7-----------|
G--------9-------------9-----------------9--------------------------|
D-----------------------------------------------------------10-/11--|

 ED
      there is something wrong with me

e-----------------------------------------|
B--10---9-10------9-10------------9--7----|
G--------------------------------------9--|
D-----------------------------------------|

 AE
   my mind is filled with radio cures

e---------------------------------------|
B--9--7----9----9-10--------------------|
G---------------------------------------|
D-------------------------------10-/11--|

 DAA/GF#G
            electronic surgical words                  

 D5D/C#AG
 picking apples for the kings and queens of things I've
F# x x x G x x x
never seen
F# xx F#/F x x Ebm xx /Bb x x/B x x
O, distance has no way of making love
/D5 \F#
understandable

 E
 D
Verse 3:

cheer up
honey I hope you can
there is something wrong with me
my mind is filled with silvery stars
honey kisses clouds of love

picking apples for the kings and queens of things I've
never seen

Light electric plays this (or slight variations) over and over
e-----------------------------------------------|
B--------11----9----9-11-------11----9----9-11--|
G-----11----11---11---------11----11---11-------|
D-----------------------------------------------|
A--9---------------------9----------------------|
D-----------------------------------------------|


O, distance has no way of making love
understandable
O, distance has no way of making love
understandable

 E
 D
 D
 cheer up
 AAAA
honey I hope you can       

That's it! For suggeestions, corrections, and requests, email me


A A/G D D/C# D5 E F# G
variations - click chord images
Transpose chords:
Tuning:
Cool service:
View: Size:
A  A  A
Rating:
Layout:
  • Currently 1/5 Stars.
  • 1
  • 2
  • 3
  • 4
  • 5
 
Accuracy:
  • Currently 0/5 Stars.
  • 1
  • 2
  • 3
  • 4
  • 5
 
click stars to rate
Chordie recommends:
Learn to play songs at Jamplay.com with video guitar lessons
Songbook:
Login to add this song to your songbook
Support the artist
Preview/buy this song
MSN Music
Why this non-profit ad?

 
login to add comments/video/corrections