""; ?> Wildberry Pie by David Wilcox - guitar chords, guitar tabs and lyrics - chordie

Wildberry Pie

David Wilcox

|-----------|-----------|-----------|--------0----*7--------------|

|-----------|-----------|--------2--|------0------*7--------------|

|------1----|------1----|------3----|----1--------*7--------------|

|----4---4--|----4---4--|----5------|-------------*7--------------|

|-----------|--2--------|-----------|--0-----------0--------------|

|--0--------|-----------|--5--------|-----------------------------|

|-------------|--------0|-------------|----------0|----------*12--|

|------------0|---------|-------------|--------4--|----------*12--|

|----1--------|----1----|----3-------3|----3-5----|----1-----*12--|

|--4---4---4--|--4---4--|--5---5---5--|--5--------|--4---4--------|

|-------------|2--------|-------------|0----------|---------------|

|0-------0----|---------|5-------5----|-----------|0----------0---|


 D(addGBm(addGG+2A5(addG
|---------------|-------------0-|---------------|------------|
|-------------0-|---------------|---------------|------------|
|-----1---------|-----1---------|-----3---------|---1--------|
|---4---4---4---|---4---4---4---|---5---4---0-5-|--------2---|
|---------------|-2-------2-----|---------------|-0------0---|
|-0-------0-----|---------------|-5-------5-----|------------|

When you sit beside the ocean's edge
And dream of what might come to be,
Your fingers keep the taste of salt,
From the castles made beside the sea.
 Gsus2(addBF#m(addDEm(addF#A7sus4D
|------------0--|----------0----|--------------0--|----------------|
|--------2------|------0-----0--|--------------0--|----------------|
|------3--------|---------------|-------1------1--|----------------|
|----5-----5----|---------------|------4-------2--|------4---------|
|---------------|----4---4------|-----2--------0--|----0-----------|
|--5------------|--4------------|----2------------|--0---------0---|

I'm lonely at work now,
My hand holds my chin.
And my mischievous fingers remind me,
And cover my grin.
 Gsus2(addBF#m(addDEm(addF#A7sus4D
|------------0--|----------0----|--------------0--|------------0---|
|--------2------|------0-----0--|--------------0--|----------------|
|------3--------|---------------|-------1------1--|----------------|
|----5-----5----|---------------|------4-------2--|------4---------|
|---------------|----4---4------|-----2--------0--|----0-----------|
|--5------------|--4------------|----2------------|--0---------0---|

The scent takes me dreaming,
To wildberry pie,
And the wind hits my sails
With the sound of your trembling sigh.
B A n.c.
|------------|------------|-------------------------------------|
|------------|------------|-------------------------------------|
|------------|------------|-------------------------------------|
|------------|------------|-------------------------------------|
|--2---------|--0---------|-----------0-------------------------|
|------------|------------|--2--4-5-7---------------------------|

Oh, oh--
(Strum the rest of the song-- a soft syncopated sixteenth-note strum works
well.)
D (no 5th) Bm(add G)
When we work to make a berry pie, lips can tell where we have been,
 G+2A7(addD
Out picking huckleberries wild, to bring the harvest home again.
 D(addGBm(addG
And on the way we sang a tune, what I said is what I meant,
 G+2A7(addD
Our love is like a red, red rose-- it leaves a certain subtle scent.
 Gsus2(addBF#m(addD
I'm lonely at work now.    My hand holds my chin, 
 Em(addF#A7sus4D
And my mischievous fingers remind me and cover my grin.
 Gsus2(addBF#m(addD
The scent takes me dreaming,    of wildberry pie, 
 Em(addF#A7sus4D
And the wind hits my sails with the sound of your trembling sigh.
 Em(addF#A7sus4D
And the wind hits my sails with the sound of your trembling sigh.
|16--14s12--16h17p16--16-14--19--19--19---||
|-----------------------------------------||
|-0---------------------------------------||
|-----------------------------------------||
|-------------------------0---------------||
|-0------9--------5-----------0-----------||

CHORDS: 6 5 4 3 2 1
===========
A7sus4 x 0 2 1 0 0
Bm(add G) x 2 4 1 0 0
D 0 0 4 0 0 0
D(add G) 0 0 4 1 0 0
Em(add F#) 2 2 4 1 0 0
F#m(add D) 4 4 0 0 0 0
G+2 5 x 5 3 0 0
Gsus2(add B) 5 x 5 3 2 x


A7sus4 B D F# G G+2
variations - click chord images
Transpose chords:
Tuning:
Cool service:
View: Size:
A  A  A
Rating:
Layout:
  • Currently 3.2/5 Stars.
  • 1
  • 2
  • 3
  • 4
  • 5
 
Accuracy:
  • Currently 2.4/5 Stars.
  • 1
  • 2
  • 3
  • 4
  • 5
 
click stars to rate
Chordie recommends:
Get acoustic guitar lessons and electric guitar lessons at JamPlay.com
Songbook:
Login to add this song to your songbook
Support the artist
Preview/buy this song
MSN Music
Why this non-profit ad?

 
login to add comments/video/corrections