Jet

Wings

E|-----------------------------------------|

B|-----------------------------------------|
G|--4---4-6-7-------4---4-6-7----9---------|
D|--4---4-6-7-------4---4-6-7----9---------|
A|--2---2-4-5-------2---2-4-5----7---------|
E|-----------------------------------------|

 AD/AA
 Jet! I can almost remember their funny faces
That time you told me that
 D/AA
You were going to be marrying soon.  
 C#m7Bm
And Jet, I thought the only
 D6A
Lonely place was on the moon.
 AA
 Jet! Jet!

 AD/AA
 Jet! Was your father as bold as a sergeant major?
How come he told you that
 D/AA
You were hardly old enough yet?  
 C#m7Bm
And Jet, I thought the major
 D6A
Was a lady suffragette.
 AA
 Jet! Jet!

 BmE
 Ah, matter, want Jet to always love me?
 BmE
 Ah, matter, want Jet to always love me?
 BmA
 Ah, matter, much later. Oh Jet

 DACGDAA

E|-17---14----------------------------------|
B|---------17-14-------------14-------------|
G|---------------16-14-14-16----------------|
D|------------------------------16-16-16-14-|
A|------------------------------------------|
E|------------------------------------------|
E|-/17-17-17-17-14-------------------------------------------------|
B|-----------------17-14-------------14----------------------------|
G|-----------------------16-14-14-16-------------------------------|
D|--------------------------------------16---14h16-14h16-14h16-14--|
A|-----------------------------------------------------------------|
E|-----------------------------------------------------------------|


 Cmaj7Bm
 Jet, I thought the major
 D6A
Was a lady suffragette.
 AA
 Jet!Jet!

 BmE
 Ah, matter, want Jet to always love me?
 BmE
 Ah, matter, want Jet to always love me?
 BmA
 Ah, matter, much later.

 DACGDAA
 AD/AA
 Jet! with the wind in your hair of a thousand laces.
Climb on the back and we'll
 D/AA
Go for a ride in the sky.  
 Cmaj7Bm
 Jet, I thought the major
 D6A
Was a lady suffragette.
 AA
 Jet! Jet!

Yeah
E|--------------------------|
B|--------------------------|
G|----9---------------------|
D|----9---------------------|
A|----7---------------------|
E|--------------------------|

 C#mBm
 I thought the major
 D6A
Was a lady suffragette.
 A
 Jet!

E|-----------------------------------------|
B|-----------------------------------------|
G|--4---4-6-7-------4---4-6-7----9---------|
D|--4---4-6-7-------4---4-6-7----9---------|
A|--2---2-4-5-------2---2-4-5----7---------|
E|-----------------------------------------|
E|-17---14-----------------------|
B|---------17-14-------------14--|
G|---------------16-14-14-16-----|
D|-------------------------------|
A|-------------------------------|
E|-------------------------------|


A A D A~

A Bm C C#m C#m7 Cmaj7 D D6 E G
variations - click chord images
Transpose chords:
Tuning:
Cool service:
View: Size:
A  A  A
Rating:
Layout:
  • Currently 2.8/5 Stars.
  • 1
  • 2
  • 3
  • 4
  • 5
 
Accuracy:
  • Currently 3.1/5 Stars.
  • 1
  • 2
  • 3
  • 4
  • 5
 
click stars to rate
Chordie recommends:
Learn how to play guitar at JamPlay.com
Songbook:
Login to add this song to your songbook
Support the artist
Preview/buy this song
MSN Music
Why this non-profit ad?

 
login to add comments/video/corrections