Guitar Tabs, Chords and Lyrics


Over The Edge  Wipers

E--------------------------------


B--7-7-7-7--7-7-7-7--7-7-7-7--7--


G--7-7-7-7--7-7-7-7--7-7-7-7--7--

D--7-7-7-7--7-7-7-7--7-7-7-7--7--
A--5-5-5-5--5-5-5-5--5-5-5-5--5--
E--------------------------------
E------------------------------------------------------------------
B--10-10-10--10/12-12-12--10-12-12-12--10-12-12-12--10-12-12-12-12-
G--10-10-10--10/12-12-12--10-12-12-12--10-12-12-12--10-12-12-12-12-
D--10-10-10--10/12-12-12--10-12-12-12--10-12-12-12--10-12-12-12-12-
A------------------------------------------------------------------
E------------------------------------------------------------------
E--------------------------------------------|
B--7-7-7--7/9-9-9--7-9-9-9--7-9-9-9--7-9-9-9-| Play 1st part
G--7-7-7--7/9-9-9--7-9-9-9--7-9-9-9--7-9-9-9-| of verse 3x.
D--7-7-7--7/9-9-9--7-9-9-9--7-9-9-9--7-9-9-9-|
A--------------------------------------------|
E--------------------------------------------|
[G]It's not the [Bb]truth I see
[F]It's just a [C]mockery
[G]Don't need to [Bb]waste my time
[F]You know I [C]really tried
[G]You take and [Bb]never give
[F]Make it so [C]hard to live
[G]I'm hangin' [Bb]on a ledge
F C (Back to Intro Riff)
Push me over the edge


[G]Don't do the [Bb]things you do
[F]Don't have to [C]oblige you
[G]Mistrusting [Bb]on my own
[F]Grown tired [C]of your drone
[G]Grow up and [Bb]be a man
[F]Drop dead right [C]where you stand
[G]I'm hangin [Bb]on a ledge
F C (Back to Intro Riff)
Push me over the edge

Important: The song above is NOT stored on the Chordie server. The original song is hosted at www.guitaretab.com. Chordie works as a search engine and provides on-the-fly formatting. Chordie does not index songs against artists'/composers' will. To remove this song please click here.

Text color:
Chord color:
Chord grids: 
Font size:    
Page size: 

Bb C F G
variations - click chord images

Login - add to songbook

Transpose chords

Tuning

Rating click stars to rate

Layout
Accuracy

SHARE PAGE  




You need to log in to post comments