Chordie logo


Her Legacy   With Broken Wings



I just found a little bit from this song 

it starts at 0:30 sec


E|-----10--8--7------------10--12--7-------------------|
B|---------------8-7-8----------------8-7-8------------|
G|-----------------------------------------------------|
D|-----------------------------------------------------|
A|-----------------------------------------------------|
E|-----------------------------------------------------| x2

Chorus

E|--10---10---10---10-----------7---------7------------|
B|-----8----8----8----8----10-8---8--10-8---8----------|
G|-----------------------------------------------------|
D|-----------------------------------------------------|
A|-----------------------------------------------------|
E|-----------------------------------------------------|

at 2:57 min

E|-----------------------------------------------------|
B|-----7-8-10-8---7-8-10-8-----------------------------|
G|---7-------------------------------------------------|
D|-----------------------------------------------------|
A|-----------------------------------------------------|
E|-----------------------------------------------------|x2

after do intro and chorus till the end .

Sorry if isnt accurate its my first tab .



Important: The song above is NOT stored on the Chordie server. The original song is hosted at www.guitaretab.com. Chordie works as a search engine and provides on-the-fly formatting. Chordie does not index songs against artists/composers will. To remove this song please click here.

This song is displayed as text-only. Transposing and tuning is only available for chordpro-songs.

Login - add to songbook

Rating click stars to rate

Layout
Accuracy

SHARE PAGE  




You need to log in to post comments