Guitar Tabs, Chords and Lyrics


A Simple Sunshine  Wolftron

-------------------------------------------------------------------------------



-------------------------------------------------------------------------------

e|--3~------0~-|
B|--3~-3~---0~-|
G|--3~--3~--1~-|
D|--2~------3~-|
A|--x-------3~-|
E|--x-------x--|
e|--0-- --0-- --0----- --3-- --1p0h1- --0~-
B|--1-- --3-- --1----- --0-- --3----- --1~-
G|--0-- --3-- --2p0h2- --1-- --2----- --2~-
D|--2-- --2-- --3----- --3-- --0----- --3~-
A|--3-- --3-- --3----- --2-- --0----- --0~-
E|--x-- --x-- --x----- --x-- --x----- --x--
[Dm]  No one down here [Fmaj7]understands...
Cmaj C9 Fmaj7*
Watch the evening sun run away from the match,
???
when my soul turns off its light.
Dm Fmaj7~
Nothing here will shine through the dark.


Chorus:

e|--0--  --0--  --0--  --x--  --x--|
B|--1--  --0--  --1--  --5--  --8--|
G|--0--  --1--  --2--  --5--  --8--|
D|--2--  --0--  --2--  --4--  --7--|
A|--3--  --2--  --0--  --5--  --8--|
E|--x--  --x--  --x--  --x--  --x--|

  [Cmaj]        [E7]       [Am]       [D9]       [F9]      

[Cmaj]Damn the cold cold [E7]moon,
that moves the [Am]seas,

that makes the waves,
that made this [D9/]scene for me to see and be [/F9]moved.
[Dmaj]I'm not crazy, [E7]I'm just so ready too [Am]live this life
far away from [D9/]everyone who sees through hopeless [/F9]eyes...


(REPEAT VERSE AS INSTRUMENTAL)


2nd verse:

[Cmaj]  Tell me something good[C9],
Fmaj7*
oh I need to live and love each day,
???
like there's nothing in my way...
[Dm]  But this light of mine can't [Fmaj7]save this place..


(REPEAT CHORUS)

\D9 /F9~
Someday i'm waking up with sunshine in my eyes...

End with Cmaj

Ilovekenny! lol

Important: The song above is NOT stored on the Chordie server. The original song is hosted at www.guitaretab.com. Chordie works as a search engine and provides on-the-fly formatting. Chordie does not index songs against artists'/composers' will. To remove this song please click here.

Text color:
Chord color:
Chord grids: 
Font size:    
Page size: 

Am C9 Cmaj D9 Dm Dmaj E7 F9 Fmaj7
variations - click chord images

Login - add to songbook

Transpose chords

Tuning

Rating click stars to rate

Layout
Accuracy

SHARE PAGE  




You need to log in to post comments