Guitar Tabs, Chords and Lyrics


Sadness   Won Ton Soup



Won ton soup - Sadness
I cant exactly tell you the beat but you'll learn

E|----------------------------------------------------------
B|----------------------------------------------------------
G|----------------------------------------------------------
D|----------------------------------------------------------
A|----2-0h3-3-3-3-3-(2x)------------------------------------
E|0h3-------------------------------------------------------

E|----------------------------------------------------------
B|----------------------------------------------------------
G|----------------------------------------------------------
D|----0---2-2-2-2-2-(2x)------------------------------------
A|0h2-----3-3-3-3-3-----------------------------------------
E|----------------------------------------------------------


E|----------------------------------------------------------
B|----------------------------------------------------------
G|----0---2-2-2-2-2-(2x)-------0---2-2-2-2-2----------------
D|0h2-----3-3-3-3-3--------0h2-----0-0-0-0-0----------------
A|----------------------------------------------------------
E|----------------------------------------------------------

E|----------------------------------------------------------
B|----------------------------------------------------------
G|----0---2---0---2-----------------------------------------
D|0h2---3---2---0------2------------------------------------
A|-------------------3----2---------------------------------


Important: The song above is NOT stored on the Chordie server. The original song is hosted at www.guitaretab.com. Chordie works as a search engine and provides on-the-fly formatting. Chordie does not index songs against artists'/composers' will. To remove this song please click here.

This song is displayed as text-only. Transposing and tuning is only available for chordpro-songs.

Login - add to songbook

Rating click stars to rate

Layout
Accuracy

SHARE PAGE  




You need to log in to post comments