Guitar Tabs, Chords and Lyrics


At My Best   Won Ton Soup



    Won ton soup - at my best
    Standard tuning

  main riff
E|----------------------------------------------------------
B|----------------------------------------------------------
G|----------------------------------------------------------
D|---------------------------------------------------------- repeat 2x
A|-7------7-----7--3------5------5--------------------------
E|---5-5----5-5------1-1----3-3-----------------------------
    verse
E|----------------------------------------------------------
B|----------------------------------------------------------
G|----------------------------------------------------------
D|7----3----5-----------------------------------------------
A|7(8x)3(3x)5(5x)-------------------------------------------
E|5----1----3----------------------------------------------- 
    Chorus
E|----------------------------------------------------------
B|----------------------------------------------------------
G|--------5-5-5---------------------------------------------
D|----5-5-3-3-3-3-3-----------------------------------------
A|5-5-3-3-------1-1-----------------------------------------
E|3-3------------------------------------------------------- 
     interlude
E|----------------------------------------------------------
B|----------------------------------------------------------
G|----------------------------------------------------------
D|7-7-5-7-7-5-7-7-5-3---------------------------------------
A|7-7-5-7-7-5-7-7-5-3---------------------------------------


Important: The song above is NOT stored on the Chordie server. The original song is hosted at www.guitaretab.com. Chordie works as a search engine and provides on-the-fly formatting. Chordie does not index songs against artists'/composers' will. To remove this song please click here.

This song is displayed as text-only. Transposing and tuning is only available for chordpro-songs.

Login - add to songbook

Rating click stars to rate

Layout
Accuracy

SHARE PAGE  




You need to log in to post comments