Guitar Tabs, Chords and Lyrics


Some Sad Someone   Wonder Stuff



Some Sad Someone
Lyrics:

Verse:
I'm sitting watching all the merry people go by,
So once around the park before I die.
I hate this jealous feeling and I want to cry,
So once around the park before I die.

Chorus:
Don't say that you are sorry, no.

Verse:
It was when she walked away I thought to myself,
Was it worth all the worry and the risk to my health.
And the opening line of every song that I heard,
Told about some fella having trouble with his girl.

Chorus:
And don't try to console me,
I don't wonna know.
 

Tab:

Verse: 
					      x4
E-|---------------------------------------------------
B-|-----3----------3----------3----------3------------
G-|---2---2------0---0------0---0------0---0----------
D-|-0--------0----------------------------------------
A-|------------3--------3-2--------2-3---------3------
E-|---------------------------------------------------
Chorus: 
				    x4 + Verse x1
E-|-----3---------------------------------------------
B-|-------3-------------------------------------------
G-|---0-------0---------------------------------------
D-|---------------------------------------------------
A-|---------------------------------------------------
E-|-3-------------------------------------------------



Important: The song above is NOT stored on the Chordie server. The original song is hosted at www.guitaretab.com. Chordie works as a search engine and provides on-the-fly formatting. Chordie does not index songs against artists'/composers' will. To remove this song please click here.

This song is displayed as text-only. Transposing and tuning is only available for chordpro-songs.

Login - add to songbook

Rating click stars to rate

Layout
Accuracy

SHARE PAGE  




You need to log in to post comments