Chordie logo


Africa   Wonderboom



Wazzup!!! Greetings from South Africa.There is not a single Tab for this song on the
net. This is my first tab, so enjoy it!
Please notify me if u want to correct anything.
(pjb@global.co.za)

Normal tuning
Gtr1:Acoustic                 Gtr2:Elec. with distortion
/= slide              h= hammer               p= pull off   

Intro& verses (repeat X3)Gtr1
|------------------------------------------------------------------
|-------5-5------5/6\5-------5-5-------5/6\5-------5-5-------5/6\5-
|------------------------------------------------------------------
|------------------------------------------------------------------
|--3-3-------3-3--------3-3-------3-3---------3-3-------3-3--------
|------------------------------------------------------------------


---------------------|
------8-6-5h6p5------|
---------------------|
---------------------|
-3-3-----------------|
---------------------|

Chorus1: (Repeat X6) Gtr1
|--------------------------------------------|
|------5-5-----------------------------------|
|----------------4-4-------5-5h7p5-3h4p3-----|
|--------------------------------------------|
|-3-0----------------------------------------|
|-----------3-3-------5-5--------------------|

Verse 2 Gtr1

Chorus 2: (repeat X4)Gtr2  Gtr1 is in () 
|------------------------------------------|
|------------------------------------------|
|-5-5--------(5)-(5h7p5)-(3h4p3)-----------|
|-5-5--5-5-7-7-----------------------------|
|-3-3--5-5-7-7-----------------------------|
|------3-3-5-5-----------------------------|

Solo: Gtr1

|-----------------------------------------------------------------
|------5-5-----5/6\5-------5-5-------5/6\5-------5-5-------5/6\5--
|-----------------------------------------------------------------
|-----------------------------------------------------------------
|-3-3-------3-3-------3-3-------3-3---------3-3-------3-3---------
|-----------------------------------------------------------------
                  Gtr2
-----------------|-------------------------------------------------
------8-6-5h6p5--|-555-666-888-666-555-666-555-666-555-666-888-666-
-----------------|-------------------------------------------------
-----------------|-------------------------------------------------
-3-3-------------|-------------------------------------------------
-----------------|-------------------------------------------------

-------------------------------------------------------------------
888-666-555-666-555-666-888-666-555-666-888-666-555-666-888-666-888
-------------------------------------------------------------------
-------------------------------------------------------------------
-------------------------------------------------------------------
-------------------------------------------------------------------

--------------|
-666-555-666--|
--------------|
--------------|
--------------|
--------------|

Bridge to Verse3: Gtr1 (play only once)

---------------------------------------------------------------------|
-----5-5-----5/6\5-----5-5-----5/6\5-----5-5-----5/6\5-----8-6-5/6\5-|
---------------------------------------------------------------------|
---------------------------------------------------------------------|
-3-3-----3-3-------3-3-----3-3-------3-3-----3-3-------3-3-----------|
---------------------------------------------------------------------|

Verse3

Chorus2

Percussion&Vocals solo

hand in hand....      Africa....
-------------------------------------------------------
-------------------------------------------------------
-----------555555-----------555555---------------------
-----------555555-----------555555---------------------
-----------333333-----------333333---------------------
-------------------------------------------------------

Chorus2 and slowly fade out.

Hope u can use this tab for something



Important: The song above is NOT stored on the Chordie server. The original song is hosted at www.guitaretab.com. Chordie works as a search engine and provides on-the-fly formatting. Chordie does not index songs against artists/composers will. To remove this song please click here.

This song is displayed as text-only. Transposing and tuning is only available for chordpro-songs.

Login - add to songbook

Rating click stars to rate

Layout
Accuracy

SHARE PAGE  




You need to log in to post comments