That Thing You Do

Wonders

 E
 You
 AmB
 Doin' that thing you
 E
 Do
 AmB
 Breakin' my heart
 C#mF#
 into a million pieces
 F#mAmB
 like you always do-o-o-o
 E
And you
 AmB
 Don't mean to be
 E
 Cruel
 AmB
 You never even
 C#mF#m
 knew about the heartache
 DB
 I've been goin' through
-chorus-
 C#mF#m
 Well I try and try to forget you girl
 EE7AAm
But it's just so hard to do  
 EAmE
 Everytime you do That Thing You Do
-verse 2-
 E
 I
 AmB
 Know all the games you
 E
 Play
 AmB
And I'm gonna find a
 C#mF#
 way to let you know that
 F#mAmB
 You'll be mine someda-a-a-ay
 E
Cuz' We
 AmB
could be happy can't you
 E
 See
 AmB
If you'd only let me
 C#mF#
 Be the one to hold you
 DB
And keep you here with me-e-e-e
-chorus-
 C#mF#
Well I try and try to for-get you girl
 EE7AAm
But it's just so hard to do  
 EAmEB
 Everytime you do That Thing You Do 
-bridge-
 A
 I don't ask a lot girl
(I don't ask a lot girl)
 C#m
But I know one thing's for sure
(Know one thing's for sure)
 F#m
It's the love I haven't got, girl
 BCB
And I just can't take it anymore         WOOOOOOOOOW
E-9--9------9--11--9---------------9---9-----9----11---9-----------------
B-------11------------11--11--9-----------11---------------11---11-------
G------------------------------------------------------------------------
D------------------------------------------------------------------------
A------------------------------------------------------------------------
E------------------------------------------------------------------------
E-9--11---11b-9--11b-9--11b-9------9--11--9------------------------------
B------------------------------11------------11--9--10--9----------------
G------------------------------------------------------------------------
D------------------------------------------------------------------------
A------------------------------------------------------------------------
E------------------------------------------------------------------------

 E
Cuz' We
 AmB
Could be happy can't you
 E
 See
 AmB
If you'd only let me
 C#mF#m
 be the one to hold you
 DB
And keep you here with me-e-e-e
 C#mF#m
Cuz' it hurts me so just to see you go
 EE7AAm
 Around with someone knew  
 EAm
 Everytime you Do That Thing
 EAm
 Every day jes' doin That Thing
 EBE
 I can't take you doin' That Thing You Do
E--------------------------------------------
B--------------------------------------------
G--------------------------------------------
D-------------2------------------------------
A----------2---------------------------------
E--0---4-------------------------------------

 E
   The riff that the lead guitar plays goes like this
E-------------------------------------------------------
B-------------------------------------------------------
G-------------------------------------------------------
D-----------------------2-------------------------------
A-----------0--2--2--4----------------------------------
E--0--0--4----------------------------------------------

Any questions at all about any of The Wonders' songs, you'll be able to contact
me at Rocknroll246@aol.com. Oh and I almost forgot, in case you didn't read this at the top, I'm givin' to ya' now.
b=bend up
This applies for the picking pattern riffs.


A Am B C C#m D E E7 F# F#m
variations - click chord images
Transpose chords:
Tuning:
Cool service:
View: Size:
A  A  A
Rating:
Layout:
  • Currently 2.7/5 Stars.
  • 1
  • 2
  • 3
  • 4
  • 5
 
Accuracy:
  • Currently 2.8/5 Stars.
  • 1
  • 2
  • 3
  • 4
  • 5
 
click stars to rate
Chordie recommends:
Learn to play guitar with video-based, online guitar lessons at JamPlay.com
Songbook:
Login to add this song to your songbook
Support the artist
Preview/buy this song
MSN Music
Why this non-profit ad?

 
login to add comments/video/corrections