Guitar Tabs, Chords and Lyrics


God Among The Waste   World Under Blood



Intro/main riff
--------------------------------------------------------------------------|
--------------------------------------------------------------------------|
--------------------------------------------------------------------------|
9---------------------------------------12----9---------------------------|
------12------10---10-----9--------------------------12----10-----9-------|
--8-8-----8-8----8----8-8----8-8-12-10-----0-0---0-0----0-----0-0---0-0-10|


Verse:

-----------------------------------------|
-----------------------------------------|
-----------------12-12-12-------11-11-11-|
-----------999--------------999----------|
77777777---------------------------------|
-----------------------------------------|

-------------------------------------|
-------------------------------------|
-------------------------------------|
-777---999-------------5/7-----------|
-------------55555555-------33333333-|
-------------------------------------|

Chorus:

--------------------------------------|
--------------------------------------|
--------------------------------------|
--7----4------------------------------|
------------7----5--------4----5------|
7---7----7----7-----2-5-2---2----2-5--|

----------------------------------------------|
----------------------------------------------|
----------------------------------------------|
----------------------------------------------|
---2-----4-----5----2-----2-----------5----4--|
3----3-----3-----3-----3----3--5----7----7--5-|

Breakdown:

------------------------------------------------------------------|
------------------------------------------------------------------|
------------------------------------------------------------------|
----66-55-----55-44-----66--------66-55------55-44-----44---------|
------------------------------------------------------------------|


Important: The song above is NOT stored on the Chordie server. The original song is hosted at www.guitaretab.com. Chordie works as a search engine and provides on-the-fly formatting. Chordie does not index songs against artists'/composers' will. To remove this song please click here.

This song is displayed as text-only. Transposing and tuning is only available for chordpro-songs.

Login - add to songbook

Rating click stars to rate

Layout
Accuracy

SHARE PAGE  




You need to log in to post comments