Chordie logo

Hidup Bersama  Xpdc

E|-------------------------------------------------------------------------|


B|---------5-5-------------5-5-------------5-5-----------------------------|


G|-----5-7-----7-5-----5-7-----7-5-----5-7-----7-5--5-5(hold)--------------|


D|-7-7-------------7-7-------------7-7-------------------------------------|


A|-------------------------------------------------------------------------|


E|-------------------------------------------------------------------------|





E|-------------------------------------------------------------------------|


B|-------------------------------------------------------------------------|


G|-----5--4-----5--4---4--------4--4------4--2---2-----2--2-----2--2\1-1---|


D|-7-7------7-7------7------5-5------5--5------5----3-3------3-3---------2-| 


A|-------------------------------------------------------------------------|


E|-------------------------------------------------------------------------|




E|-------------------------------------------------------------------------|


B|-------------------------------------------------------------------------|


G|-----5-5-----5--9-7-5-----4-4-----4--7-5-4-----2-2-----2--5\4-2-4--4/5\4-|


D|-7-7-----7-7----------5-5-----5-5----------3-3-----3-3-------------------| 


A|-------------------------------------------------------------------------|


E|-------------------------------------------------------------------------|



D[Am]i tepi pantai yang indah
Aku duduk seorang dir[G]i
[F]Suasana se[E]pi
T[Am]eringat engkau di waktu malam
Wajah mu selalu ku terb[G]ayang
Pada m[F]u wahai say[E]ang
A[Dm]ku meratap meratap mer[Am]ayu
P[Dm]ada dewi puspita hatik[E]u
A[Am]ku tidak lupa akan janjimu
Di waktu pertemuan kita da[G]hulu
Hid[F]up bersama disampingk[E]u


Riff3 (Original song's riff)
E|-------------------------------------------------------------------------|
B|-------------------------------------------------------------------------|
G|---------5-5-7-7-9-9-10-9-10-9----------4-4-5-5-7-7-9-7-9-7--------------|
D|-7-7-7-7--------------------------5-5-5----------------------------------|
A|-------------------------------------------------------------------------|
E|-------------------------------------------------------------------------|
E|----------------------------------------------------------------|
B|----------------------------------------------------------------|
G|-------2-2-3-3-5-5-5-5-2-2-5-5-4-2-4---4/5\4--------------------|
D|-3-3-3----------------------------------------------------------|
A|----------------------------------------------------------------|
E|----------------------------------------------------------------|


I think its near-perfect la the riffs and chords.
That's about it. I figured this whole thing out when I was freakin bored.
So there you go. Figure out the sequence of play by yourself its very easy.
IF you got any near-correct MALAY SONGS tabs u can email me at ridz_o_rama@hotmail.com

Important: The song above is NOT stored on the Chordie server. The original song is hosted at www.guitaretab.com. Chordie works as a search engine and provides on-the-fly formatting. Chordie does not index songs against artists/composers will. To remove this song please click here.

Am Dm E F G
variations - click chord images

Login - add to songbook

Transpose chords

Tuning

Rating click stars to rate

Layout
Accuracy

SHARE PAGE  

You need to log in to post comments