Chordie logo

Mae   Xutos E Pontapes



Artist: Xutos & Pontapés
Song: Mãe
Tabbed by: SonnePT
Tuning: Standard (E A D G B e)
_______________________________

 Intro
Guitarra 1
e|------------------------|
A|------------------------|
D|------------------------|
G|-9--9--9--9--9--9--9--9-| cont.
B|-7--7--7--7--7--7--7--7-|
E|------------------------|

Guitarra 2
e|------------------------------------------------------|
A|------------------------------------------------------|
D|------------------------------------------------------|
G|----55----77----55----7h8p7-----55----77----55----7---|
B|-77----55----77----55--------77----55----77----77---5-|
E|------------------------------------------------------|

 Intro/Verso
Guitarra 1
e|-------------------------------|
A|-------------------------------|
D|-------------------------------|
G|-99-9---99-9---99-9---99-9-----| cont.
B|-77-7---77-7---77-7---77-7-----|
E|-------------------------------|

Guitarra 2: mesmo riff da intro

 Pré-Refrão
Guitarra 1
e|---------------------|
A|---------------------|
D|---------------------|
G|-99--99--99--99------| cont.
B|-77--77--77--77------|
E|---------------------|

Guitarra 2
e|-7--7--7--7--7--7-|
A|-8--8--8--8--8--8-|
D|------------------|
G|------------------| (não tenho a certesa quanto a esta parte)
B|------------------|
E|------------------|

 Refrão
e|-----------------------------------------|
A|-----------------------------------------|
D|-5*--7*----------5*--7*------------------|
G|-5*--7*--8*--5*--5*--7*--3*--5*--3*--5*--|
B|-3*--5*--8*--5*--3*--5*--3*--5*--3*--5*--|
E|---------6*--3*----------1*--3*--1*--3*--|
PM                         .   .   .   .

*tocar as vezes que forem necessárias


 Solo
Guitarra 1
e|--------------------------|
A|--------------------------|
D|-xxx-12~-12----xxx-12~-12-|
G|-xxx-12~-12----xxx-12~-12-|
B|-xxx-10~-10----xxx-10~-10-|
E|--------------------------|

e|------------------------------------|
A|------------------------------------|
D|-1212-12--1212-12--1212-12--1212-12-|
G|-1212-12--1212-12--1212-12--1212-12-| (12 e 10)
B|-1010-10--1010-10--1010-10--1010-10-| cont.
E|------------------------------------|

Guitarra 2: Mesmo riff da intro/verso

Guitarra 3:
e|--------------------------------------------------------------|
A|--------------------------------------------------------------|
D|----------------------------------------------7---------------|
G|----------------7---------------------------------------------| 2 vezes

B|-7--9--10--9--7----9--10--9--7----7--9--10--9-----------------|
E|------------------------------------------------10--12--10--7-|

 Outro
e|------------------|
A|------------------|
D|------------------|
G|--3*--5*--3*--5*--|
B|--3*--5*--3*--5*--|
E|--1*--3*--1*--3*--|
PM  .   .   .   .

e|---------------|
A|---------------|
D|---------------|
G|--3*--5--5--5~-|
B|--3*--5--5--5~-|
E|--1*--3--3--5~-|
PM  .   



Important: The song above is NOT stored on the Chordie server. The original song is hosted at www.guitaretab.com. Chordie works as a search engine and provides on-the-fly formatting. Chordie does not index songs against artists/composers will. To remove this song please click here.

This song is displayed as text-only. Transposing and tuning is only available for chordpro-songs.

Login - add to songbook

Rating click stars to rate

Layout
Accuracy

SHARE PAGE  

You need to log in to post comments