"yes"; ?> Im A Man by Yardbirds - guitar chords, guitar tabs and lyrics - chordie

Im A Man

Yardbirds

--------- -------------|

--------- -------------|
-4-5-4--- -4-5-4-------|
-------5- -------5-4-3-|
--------- -------------|
--------- -------------|

 GBbC
 DFG
---------------------------------------------------------------------------|
---------------------------------------------------------------------------|
---------------------------------------------------------------------------|
---------------------------------------------------------------------------|
---------------------------------------------------------------------------|
-10-13--15--15--15--15--15-15-15-15--15-15-15-15--15-15-15-15--15-15-15-15-|

 FDCG
---------------------------------------------------|
---------------------------------------------------|
---------------------------------------------------|
---------------------------------------------------|
---------------------------------------------------|
-15-15-15-15--13-13-13-13--10-10-10-10--8-8-8-8--3-|


verse
(w/riff 1)
Goin back down,
To Kansas too,
Bring back a little girl,
Just like you.
Now I'm a man,
I spell M-A-N...man.

solo
 bass
-----------------|
-----------------|
-----------------|
-----------------|
-----------------|
-3-3-3-3-3-1-2-3-|

















Bb C D F G
variations - click chord images
Transpose chords:
Tuning:
Cool service:
View: Size:
A  A  A
Rating:
Layout:
  • Currently 3.1/5 Stars.
  • 1
  • 2
  • 3
  • 4
  • 5
 
Accuracy:
  • Currently 2.4/5 Stars.
  • 1
  • 2
  • 3
  • 4
  • 5
 
click stars to rate
Chordie recommends:
Learn how to play guitar at JamPlay.com
Songbook:
Login to add this song to your songbook
Support the artist
Preview/buy this song
MSN Music
Why this non-profit ad?

 
login to add comments/video/corrections